Yellowcard - Only One Chords & Tabs

 

Only One Chords & Tabs

Yellowcard Chords & Tabs

Version: 4 Type: Tab 0 ratings
1 star 2 stars 3 stars 4 stars 5 stars
comments

Only One Tab

   
the tabs for this song are realy accurate but the intro is really confusing. i figured 
another way to play it, hope u like it
[ Tab from: http://www.guitartabs.cc/tabs/y/yellowcard/only_one_tab_ver_4.html ]
 pick with fingers and alternate like picking it loud and soft to try to copy the 
sound, or jsut like arpeggiate the chords like they do it live listen to the song or sing 
to figure out the changes
g.1
e|-4----7----0----0----0------------------------------------------------------|
B|-5----5----4----5----5------------------------------------------------------|
G|-4----4----4----6----4------------------------------------------------------|
D|-6----7--------------7------------------------------------------------------|
A|----------------------------------------------------------------------------|
E|----------------------------------------------------------------------------|
g.2
e|---------------------------------------------------------------------------|
B|---------------------12-12-10-10-9-10--------------------------------------|
G|---------------------13-13-11-11-9-11--------------------------------------|
D|---------------------------------------------------------------------------|
A|---------------------------------------------------------------------------|
E|---------------------------------------------------------------------------|
Comments