Yellowcard - Only One Chords & Tabs

 

Only One Chords & Tabs

Yellowcard Chords & Tabs

Version: 1 Type: Tab 7 ratings
1 star 2 stars 3 stars 4 stars 5 stars
comments

Only One Tab

#----------------------------------PLEASE NOTE---------------------------------#
#This file is the author's own work and represents their interpretation of the #
#song. You may only use this file for private study, scholarship, or research. #
#------------------------------------------------------------------------------#

Song: Only One
Artist: Yellowcard
Tabbed by CaRRie JuNioR UNiTEN       

 
Verse
                                                                        
|----0-----0-----0-----0-----0-----|------0-----0-----0-----0-----0---|
|------0-----0-----0-----0-----0---|----0-----0-----0-----0-----0-----|
|--1-----1-----1-----1-----1-----1-|--2-----2-----2-----2-----2-----2-|
|----------------------------------|----------------------------------|
|----------------------------------|----------------------------------|
|----------------------------------|----------------------------------|
                                                                      
|----0-----0-----0-----0-----0-----|------4-----4-----2-----0-----2---|
|------0-----0-----------0-----0---|----0-----0-----0-----0-----0-----|
|--4-----4-----4---4/6-----6-----6-|--2-----2-----2-----2-----2-----2-|
|----------------------------------|----------------------------------|
|----------------------------------|----------------------------------|
|----------------------------------|----------------------------------|

Prechorus                                                                   
                                                   
--------------------------------------------------|
--------------------------------------------------|
--4--4--4--4--4--4--4--4--4--4--4--4--4--4--4--4--|
--4--4--4--4--4--4--4--4--4--4--4--4--4--4--4--4--|
--2--2--2--2--2--2--2--2--2--2--2--2--2--2--2--2--|
--------------------------------------------------|
                                                  
--------------------------------------------------|
--------------------------------------------------|
--6--6--6--6--6--6--6--6--6--6--6--6--6--6--6--6--|
--6--6--6--6--6--6--6--6--6--6--6--6--6--6--6--6--|
--4--4--4--4--4--4--4--4--4--4--4--4--4--4--4--4--|
--------------------------------------------------|
                                                  
--------------------------------------------------|
--------------------------------------------------|
--------------------------------------------------|
--2--2--2--2--2--2--2--2--2--2--2--2--2--2--2--2--|
--2--2--2--2--2--2--2--2--2--2--2--2--2--2--2--2--|
--0--0--0--0--0--0--0--0--0--0--0--0--0--0--0--0--|
                                                                      
-----------------------------------|
-----------------------------------|
--4--4--4--4--4--4--4--4--4--------|
--4--4--4--4--4--4--4--4--4--------|
--2--2--2--2--2--2--2--2--2--------|
-----------------------------------|


Chorus
[ Tab from: http://www.guitartabs.cc/tabs/y/yellowcard/only_one_tab.html ]
-----------------------------------|
-----------------------------------|
--6-6-6-6-6-6-6-6-6-6-6-6-6-6-6-6--|
--6-6-6-6-6-6-6-6-6-6-6-6-6-6-6-6--|
--4-4-4-4-4-4-4-4-4-4-4-4-4-4-4-4--|
-----------------------------------| 
                                                                    
----------------------------------|----------------------------------|
----------------------------------|----------------------------------|
----------------------------------|----------------------------------|
--7-7-7-7-7-7-7-7-7-7-7-7-7-7-7-7-|--2-2-2-2-2-2-2-2-2-2-2-2-2-2-2-2-|
--7-7-7-7-7-7-7-7-7-7-7-7-7-7-7-7-|--2-2-2-2-2-2-2-2-2-2-2-2-2-2-2-2-|
--5-5-5-5-5-5-5-5-5-5-5-5-5-5-5-5-|--0-0-0-0-0-0-0-0-0-0-0-0-0-0-0-0-|
                                                                      
----------------------------------|----------------------------------|
----------------------------------|----------------------------------|
--4-4-4-4-4-4-4-4-5-5-5-5-5-5-5-5-|--6-6-6-6-6-6-6-6-6-6-6-6-6-6-6-6-|
--4-4-4-4-4-4-4-4-x-x-x-x-x-x-x-x-|--6-6-6-6-6-6-6-6-6-6-6-6-6-6-6-6-|
--2-2-2-2-2-2-2-2-3-3-3-3-3-3-3-3-|--4-4-4-4-4-4-4-4-4-4-4-4-4-4-4-4-|
----------------------------------|----------------------------------|

Guitar Solo

-----------------------|--------------------------|
-----------------------|--------------------------|
--6--------------------|----------------------13--|
--6------------11--13--|--14----------11--11------|
--4--------------------|--------------------------|
-----------------------|--------------------------|
                                                           
---------------------------------|------------------------|
---------------------------------|------------------------|
--13---11------------------------|------------------------|
------------11--11---9-11--13-14-|------------11--11--14--|
---------------------------------|------------------------|
---------------------------------|------------------------|
                                                        
----------------------------|--------------------------|
----------------------------|--------------------------|
----------------------------|----------------------16--|
--14---13---13------11--13--|--14----------14--14------|
----------------------------|--------------------------|
----------------------------|--------------------------|
                                                                        
----------------------------------|------------------------------------|
----------------------------------|------------------------------------|
--16---14----------------------13-|--13---14-13---------13-14-13-------|
------------14--14---11-14--16----|-------------14---------------14----|
----------------------------------|----------------14---------------14-|
----------------------------------|------------------------------------|
                                                                       
-----------------------------------|
-----------------------------------|
----13-14-13-9---------------------|
--------------14---14--16--14--13--|
----------------14-----------------|
-----------------------------------|

Ending (violin)

--16--------------------|----------------17----|--16------------------|
------------17----14----|----------14----------|------------17--------|
------------------------|----------------------|----------------------|
------------------------|----------------------|----------------------|
------------------------|----------------------|----------------------|
------------------------|----------------------|----------------------|
                                             
----------------------|--------------------||
--12--------13--------|--14----------------||
----------------------|--------------------||
----------------------|--------------------||
----------------------|--------------------||
----------------------|--------------------||

Thats All.....CaRRie JuNiOr 
carielurve_g@yahoo.com 
....



Comments