Yellowcard - Only One Chords & Tabs

 

Only One Chords & Tabs

Yellowcard Chords & Tabs

Version: 1 Type: Chords 4 ratings
1 star 2 stars 3 stars 4 stars 5 stars
comments

Only One Chords

   
#----------------------------------PLEASE NOTE---------------------------------#
#This file is the author's own work and represents their interpretation of the #
#song. You may only use this file for private study, scholarship, or research. #
#------------------------------------------------------------------------------#

Song: Only One
Artist: Yellowcard
Album: Ocean Avenue (???)
Tabbed by Mauricio Galeano

Intro and verse (1st guitar) with effect:

e---------------------------------------------------------------------------------------------------------------------
B-----9---------9---------9----------9---------9------------------12---------12--------12-------12--------12----
G--------9---------9----------9---------9---------9-----------------------------------------------------------------
D-9---------9---------9----------9---------9--------9----7--9-------7--9-------7--9------7--9------7--9--------
A---------------------------------------------------------------------------------------------------------------------
E---------------------------------------------------------------------------------------------------------------------

E----------------------------------------------------------------------------------------------------------------------
B-----------------------------------------------------------------12--------12----------12----------12---------12-
G----8--9-----8--9----8--9-----9--9-----9--9-----9----------------------------------------------------------------
D-9--------9--------9--------9--------9---------9----------9-----------9----------9-----------9------------9------
A--------------------------------------------------------12---------12---------12----------12----------12----------
E----------------------------------------------------------------------------------------------------------------------

Intro and verse (2nd guitar) with effect:
[ Tab from: http://www.guitartabs.cc/tabs/y/yellowcard/only_one_crd.html ]
E---0--------0---------0--------0---------0----------------0--------0---------0---------0--------0----------------
B------0--------0---------0---------0--------0----------0--------0--------0---------0---------0-------------------
G-1------1---------1---------1---------1--------1---2--------2--------2---------2---------2----------------------
D--------------------------------------------------------------------------------------------------------------------
A--------------------------------------------------------------------------------------------------------------------
E--------------------------------------------------------------------------------------------------------------------

E-----0--------0---------0--------0---------0------------------4--------4---------2--------0--------2------------
B--------0--------0-------------------0---------0-----------0--------0---------0--------0--------0---------------
G--4-------4---------4------4/6---------6---------6----2--------2---------2--------2--------2-------------------
D-------------------------------------------------------------------------------------------------------------------
A-------------------------------------------------------------------------------------------------------------------
E------------------------------------------------------------------------------------------------------------------


Broken this fragile thing now
And I can't, I can't pick up the pieces
And I've thrown my words all around
But I can't, I can't give you a reason

              B5
I feel so broken up (so broken up)
         C#5
And I give up (I give up)
                    E5                             C#5
I just want to tell you so you know

CHORUS:

           C#5                 A5                                 E5
Here I go, scream my lungs out and try to get to you
                   B5         C5 (03x5xx)
You are my only one
        C#5                 A5                                 E5
I let go, but there's just no one that gets me like you do
                   B5         C5 (03x5xx)
You are my only, my only one

Made my mistakes, let you down
And I can't, I can't hold on for too long
Ran my whole life in the ground
And I can't, I can't get up when you're gone

And something's breaking up (breaking up)
I feel like giving up (like giving up)
I won't walk out until you know

Here I go, scream my lungs out and try to get to you
You are my only one
I let go, but there's just no one that gets me like you do
You are my only my only one

Here I go so dishonestly
Leave a note for you my only one
And I know you can see right through me
So let me go and you will find someone

Here I go, scream my lungs out and try to get to you
You are my only one
I let go, but there's just no one, no one like you
You are my only, my only one
My only one
My only one
My only one
You are my only, my only one
Comments