Yellowcard - October Nights Chords & Tabs

 

October Nights Chords & Tabs

Yellowcard Chords & Tabs

Version: 1 Type: Tab 0 ratings
1 star 2 stars 3 stars 4 stars 5 stars
comments

October Nights Tab

   
DROP D TUNING!

~ - let ring out
* - harmonic
... - palm mute
/ \ - slide
h - hammer on
p - pull off
5x
5x - mute after strumming
5x

GUITAR 1'S PARTS
----------------
Intro:
e|---------------------------------------------------------------------------|
B|---------------------------------------------------------------------------|
G|---------------------------------------------------------------------------|
D|---------------------------------------------------------------------------|
A|------------------------*-*-*-*-*--*----*-----*----*---*-------------------|
D|0-0-0-0-0-0-0-0-0-0-0-0-5-5-5-5-5--5~---7~---12~---5~--7~------------------|

Intro Cont'd:
e|---------------------------------------------------------------------------|
B|---------------------------------------------------------------------------|
G|7-7-7-7-7-7-7-7-7-7-7-7--7-7-7-7-7-7-7-7-7-7-7-7--7-7-7-7-7-7-7-7-7-7-7-7--|
D|x-x-x-x-x-x-x-x-x-x-x-x--x-x-x-x-x-x-x-x-x-x-x-x--x-x-x-x-x-x-x-x-x-x-x-x--|
A|5-5-5-5-5-5-5-5-5-5-5-5--5-5-5-5-5-5-5-5-5-5-5-5--5-5-5-5-5-5-5-5-5-5-5-5--|
D|---------------------------------------------------------------------------|
    .   .   .   .            .   .   .   .            .   .   .   .

Intro Cont'd:
e|---------------------------------------------------------------------------|
B|----------------------(Just keep doing this octave til the verse)----------|
G|7-7-7-7-7-7-7-7-7x-------7>------------------------------------------------|
D|x-x-x-x-x-x-x-x-x--------x-------------------------------------------------|
A|5-5-5-5-5-5-5-5-5x-------5>------------------------------------------------|
D|---------------------------------------------------------------------------|
    .   .   .   .

Verse:  "Warm October nights..."
e|---------------------------------------------------------------------------|
B|---------------------------------------------------------------------------|
G|----6~------------------4-4-4-4-4-4-7-7-7-7-7-7----------------------------|
D|0~--x---5~--5~--5-5-5-5-4-4-4-4-4-4-7-7-7-7-7-7-5-5-5-5-5-5-5-5-5-5-5-5----|
A|0~--4~--5~--5~--5-5-5-5-2-2-2-2-2-2-4-4-4-4-4-4-5-5-5-5-5-5-5-5-5-5-5-5----|
D|0~------5~--4~--4-4-4-4-------------------------4-4-4-4-4-4-5-5-5-5-5-5----|
                  ...........   ...   ...   ...   ...   ...   ...   ...

Verse Cont'd:
e|---------------------------------------------------------------------------|
B|---------------------------------------------------------------------------|
G|4-4--4-4-4-------------4-4--4-4-4------------------------------------------|
D|4-4--4-4-4-2-2-2-2-2-2-4-4--4-4-4-2-2-2-2-2-2-5-5-5--5-5-5-5-5-5--5-5-5-0-0|
A|2-2--2-2-2-2-2-2-2-2-2-2-2--2-2-2-2-2-2-2-2-2-5-5-5--5-5-5-5-5-5--5-5-5-0-0|
D|-----------2-2-2-2-2-2------------2-2-2-2-2-2-4-4-4--4-4-4-5-5-5--5-5-5-0-0|
       .....                  .....             .............................

Verse Cont'd:
e|---------------------------------------------------------------------------|
B|---------------------------------------------------------------------------|
G|---------------------------------------------------------------------------|
D|0--0-0-0-0-0-0-------5-5-5-5-5-5-5-5-5-5-5-5-5-5-5-5-0-0-0-0-0-0-0-0-0-0-0-|
A|0--0-0-0-0-0-0-------5-5-5-5-5-5-5-5-5-5-5-5-5-5-5-5-0-0-0-0-0-0-0-0-0-0-0-|
D|0--0-0-0-0-0-0--12/--4-4-4-4-4-4-4-4-5-5-5-5-5-5-5-5-0-0-0-0-0-0-0-0-0-0-0-|
  ..............

Verse Cont'd:
e|---------------------------------------------------------------------------|
B|---------------------------------------------------------------------------|
G|---------------------------------------------------------------------------|
D|0-0-0-0-0-5-5-5--5-5-5-5-5-5--5-5-5-0-0-0--0-0-0-0-0-0-------5-5-5-5-5-5-5-|
A|0-0-0-0-0-5-5-5--5-5-5-5-5-5--5-5-5-0-0-0--0-0-0-0-0-0-------5-5-5-5-5-5-5-|
D|0-0-0-0-0-4-4-4--4-4-4-5-5-5--5-5-5-0-0-0--0-0-0-0-0-0--12/--4-4-4-4-4-4-4-|
            ............................................

Verse Cont'd:
e|---------------------------------------------------------------------------|
B|---------------------------------------------------------------------------|
G|----------------4-4-4-4-4-4-4-2~----2h4p2----------------------------------|
D|5-5-5-5-5-5-5-5-4-4-4-4-4-4-4-2~----------4-5------------------------------|
A|5-5-5-5-5-5-5-5-2-2-2-2-2-2-2-0~-------------------------------------------|
D|5-5-5-5-5-5-5-5------------------------------------------------------------|

Chorus:  "Tear me off a piece of..."  (3x)
e|---------------------------------------------------------------------------|
B|---------------------------------------------------------------------------|
G|---------------------------------------------------------------------------|
D|5-5-5--5-5--5-5-5-5-0-0-0-0-0-0-0-0-0-0-0-0--------------------------------|
A|5-5-5--5-5--5-5-5-5-0-0-0-0-0-0-0-0-0-0-0-0--------------------------------|
D|5-5-5--5-5--5-5-5-5-0-0-0-0-0-0-0-0-0-0-0-0--------------------------------|
              .......

Chorus Cont'd:  (4th time)
e|---------------------------------------------------------------------------|
B|---------------------------------------------------------------------------|
G|---------------------------------------------------------------------------|
D|5-5-5--5-5--5-5-5-5-0-0-0-0-0-7-7-7-7-7-7----------------------------------|
A|5-5-5--5-5--5-5-5-5-0-0-0-0-0-4-4-4-4-4-4----------------------------------|
D|5-5-5--5-5--5-5-5-5-0-0-0-0-0----------------------------------------------|
              .......

Interlude:
e|---------------------------------------------------------------------------|
B|---------------------------------------------------------------------------|
G|4-4-6-6-7-7x--7-6---6-7-6----4-4-6-6----------------------4-4-6-6-7-7x-----|
D|4-4-6-6-7-7x------9-------7--4-4-6-6-5-5x-----------------4-4-6-6-7-7x-----|
A|2-2-4-4-5-5x-----------------2-2-4-4-5-5x--5-4---4-5-4----2-2-4-4-5-5x-----|
D|-------------------------------------5-5x------7-------7-------------------|
                                             .............

Interlude Cont'd:
e|---------------------------------------------------------------------------|
B|---------------------------------------------------------------------------|
G|7-6---6-7-6----4-4-6-6-----------------------------------------------------|
D|----9-------7--4-4-6-6-5-5x------------------------------------------------|
A|---------------2-2-4-4-5-5x--5-4---4-5-4----5-4---4-5-4--------------------|
D|-----------------------5-5x------7-------7------7-------7------------------|
                               ............................


Next Part:  "I wish the sun would hide it's..."
e|---------------------------------------------------------------------------|
B|---------------------------------------------------------------------------|
G|---------------------------------------------------------------------------|
D|4-4x---4-4-4-4-4-------------------------------------------------7---------|
A|2-2x---2-2-2-2-2-2-2x--2-2-2-2-2-5-5x--5-5-5-5-5-5-5x--5-5-5-5-5-----------|
D|-----------------2-2x--2-2-2-2-2-4-4x--4-4-4-4-4-5-5x--5-5-5-5-5-----------|
  ................................................................

Next Part Cont'd:
e|---------------------------------------------------------------------------|
B|---------------------------------------------------------------------------|
G|---------------------------------------------------------------------------|
D|4-4x---4-4-4-4-4-------------------------------------------------7--4~-----|
A|2-2x---2-2-2-2-2-2-2x--2-2-2-2-2-5-5x--5-5-5-5-5-5-5x--5-5-5-5-5-----------|
D|-----------------2-2x--2-2-2-2-2-4-4x--4-4-4-4-4-5-5x--5-5-5-5-5-----------|
  ................................................................

Next Part Cont'd:  "I wanna watch you dream..."
e|---------------------------------------------------------------------------|
B|---------------------------------------------------------------------------|
G|---------------------------------------------------------------------------|
D|---------------------------------------------------------------------------|
A|5h7-5~-----5h7-5~---5-5-5x-------------------------------------------------|
D|--------------------5-5-5x-------------------------------------------------|
                      ......

Next Part Cont'd:  "I wanna watch you dream..."  (4x)
e|---------------------------------------------------------------------------|
B|---------------------------------------------------------------------------|
G|---------------------------------------------------------------------------|
D|0-0-0-0-0-0-0-0-5-5-5-5-5-5-5-5--------------------------------------------|
A|0-0-0-0-0-0-0-0-5-5-5-5-5-5-5-5--------------------------------------------|
D|0-0-0-0-0-0-0-0-5-5-5-5-5-5-5-5--------------------------------------------|

Next Part Cont'd:  "I wanna watch you dream..."  (4x)
e|---------------------------------------------------------------------------|
B|---------------------------------------------------------------------------|
G|---------------------------------------------------------------------------|
D|5-5-5x--5-5-5-5-5-5x--5-5-5------------------------------------------------|
A|5-5-5x--5-5-5-5-5-5x--5-5-5------------------------------------------------|
D|4-4-4x--4-4-4-5-5-5x--5-5-5------------------------------------------------|

Part After That:
e|---------------------------------------------------------------------------|
B|---------------------------------------------------------------------------|
G|7-7-7-7-7-7-7-7-7-7-7-7--7-7-7-7-7-7-7-7-7-7-7-7--7-7-7-7-7-7-7-7-7-7-7-7--|
D|x-x-x-x-x-x-x-x-x-x-x-x--x-x-x-x-x-x-x-x-x-x-x-x--x-x-x-x-x-x-x-x-x-x-x-x--|
A|5-5-5-5-5-5-5-5-5-5-5-5--5-5-5-5-5-5-5-5-5-5-5-5--5-5-5-5-5-5-5-5-5-5-5-5--|
D|---------------------------------------------------------------------------|
    .   .   .   .            .   .   .   .            .   .   .   .

Part After That Cont'd:
e|---------------------------------------------------------------------------|
B|---------------------------------------------------------------------------|
G|7-7-7-7-7-7-7-7-2h4p2------------------------------------------------------|
D|x-x-x-x-x-x-x-x-------4-5--------------------------------------------------|
A|5-5-5-5-5-5-5-5------------------------------------------------------------|
D|---------------------------------------------------------------------------|
    .   .   .   .

Repeat Chorus
4th Time of Chorus:
e|---------------------------------------------------------------------------|
B|---------------------------------------------------------------------------|
G|--------------------7-7-7-7-7----------------------------------------------|
D|5-5-5--5-5--5-5-5-5-7-7-7-7-7-7-7-7-7-7-7----------------------------------|
A|5-5-5--5-5--5-5-5-5-5-5-5-5-5-7-7-7-7-7-7----------------------------------|
D|5-5-5--5-5--5-5-5-5-----------7-7-7-7-7-7----------------------------------|
              .......

Outro:
e|---------------------------------------------------------------------------|
B|---------------------------------------------------------------------------|
G|---------------------------------------------------------------------------|
D|0-0-0-0-0-0-0-0-0-0-0-0-0-0-0-0-7-7-7-7-7-7-7-7-7-7-7-7-7-7-7-7-5-5-5-5-5-5|
A|0-0-0-0-0-0-0-0-0-0-0-0-0-0-0-0-7-7-7-7-7-7-7-7-7-7-7-7-7-7-7-7-5-5-5-5-5-5|
D|0-0-0-0-0-0-0-0-0-0-0-0-0-0-0-0-7-7-7-7-7-7-7-7-7-7-7-7-7-7-7-7-5-5-5-5-5-5|

Outro Cont'd:
e|---------------------------------------------------------------------------|
B|---------------------------------------------------------------------------|
G|---------------------------------------------------------------------------|
D|5-5-5-5-5-5-5-5-5-5-9-9-9-9-9-9-9-9-5-5-5-5-5-5-5-5-0-0-0-0-0-0-0-0-0-0-0-0|
A|5-5-5-5-5-5-5-5-5-5-9-9-9-9-9-9-9-9-5-5-5-5-5-5-5-5-0-0-0-0-0-0-0-0-0-0-0-0|
D|5-5-5-5-5-5-5-5-5-5-9-9-9-9-9-9-9-9-5-5-5-5-5-5-5-5-0-0-0-0-0-0-0-0-0-0-0-0|
                                                        ...   ...   ...   ...

Outro Cont'd:
e|---------------------------------------------------------------------------|
B|---------------------------------------------------------------------------|
G|------------------------------------------------7-7-7-7-7-7-7-7-7-7-7-7-7x-|
D|7-7-7-7-7-7-7-7-7-7-7-7-5-5-5-5-5-5-5-5-5-5-5-5-x-x-x-x-x-x-x-x-x-x-x-x-x--|
A|7-7-7-7-7-7-7-7-7-7-7-7-5-5-5-5-5-5-5-5-5-5-5-5-5-5-5-5-5-5-5-5-5-5-5-5-5x-|
D|7-7-7-7-7-7-7-7-7-7-7-7-5-5-5-5-5-5-5-5-5-5-5-5----------------------------|
    ...   ...   ...   ...   ...   ...   ...   ...   ...   ...   ...   ...
[ Tab from: http://www.guitartabs.cc/tabs/y/yellowcard/october_nights_tab.html ]
GUITAR 2'S PARTS:
-----------------
Intro:  (4x)  Clean Guitar
e|---------------------------------------------------------------------------|
B|---------------------------------------------------------------------------|
G|-11-11/12\11-11/12\11-11/12\11---7-7-7-------------------------------------|
D|--x--x--x--x--x--x--x--x--x--x---x-x-x-------------------------------------|
A|--9--9/10\-9--9/10\-9--9/10\-9---5-5-5-------------------------------------|
D|---------------------------------------------------------------------------|

Intro Cont'D:  (3x)
e|:-------------------------------------|------------------------------------|
B|:-------------------------------------|--(on-4th-time)---------------------|
G|:11-11/12\11-11/12\11-11/12\11--7-7-7-|-11-11/12\11-11/12\11-11/12\11------|
D|:-x--x--x--x--x--x--x--x--x--x--x-x-x-|--x--x--x--x--x--x--x--x--x--x------|
A|:-9--9/10\-9--9/10\-9--9/10\-9--5-5-5-|--9--9/10\-9--9/10\-9--9/10\-9------|
D|:-------------------------------------|------------------------------------|

Intro Cont'd:
e|---------------------------------------------------------------------------|
B|---------------------------------------------------------------------------|
G|---------------------------------------------------------------------------|
D|0-0-0-0-0-0-0-0-0-0-0-0-0-0-0-0-7-7-7-7-7-7-7-7-7-7-7-7-7-7-7-7-5-5-5-5-5-5|
A|0-0-0-0-0-0-0-0-0-0-0-0-0-0-0-0-7-7-7-7-7-7-7-7-7-7-7-7-7-7-7-7-5-5-5-5-5-5|
D|0-0-0-0-0-0-0-0-0-0-0-0-0-0-0-0-7-7-7-7-7-7-7-7-7-7-7-7-7-7-7-7-5-5-5-5-5-5|

Intro Cont'd:
e|---------------------------------------------------------------------------|
B|---------------------------------------------------------------------------|
G|---------------------------------------------------------------------------|
D|5-5-5-5-5-5-5-5-5-5-9-9-9-9-9-9-9-9-5-5-5-5-5-5-5-5------------------------|
A|5-5-5-5-5-5-5-5-5-5-9-9-9-9-9-9-9-9-5-5-5-5-5-5-5-5------------------------|
D|5-5-5-5-5-5-5-5-5-5-9-9-9-9-9-9-9-9-5-5-5-5-5-5-5-5------------------------|

Verse:  "Warm October nights..."
e|---------------------------------------------------------------------------|
B|---------------------------------------------------------------------------|
G|------------------------4-4-4-4-4-4-7-7-7-7-7-7----------------------------|
D|0~--7~--5~--5~--5-5-5-5-4-4-4-4-4-4-7-7-7-7-7-7-5-5-5-5-5-5-5-5-5-5-5-5----|
A|0~--7~--5~--5~--5-5-5-5-2-2-2-2-2-2-4-4-4-4-4-4-5-5-5-5-5-5-5-5-5-5-5-5----|
D|0~--7~--5~--4~--4-4-4-4-------------------------4-4-4-4-4-4-5-5-5-5-5-5----|
                  ...........   ...   ...   ...   ...   ...   ...   ...

Verse Cont'd:
e|---------------------------------------------------------------------------|
B|---------------------------------------------------------------------------|
G|4-4--4-4-4-------------4-4--4-4-4------------------------------------------|
D|4-4--4-4-4-2-2-2-2-2-2-4-4--4-4-4-2-2-2-2-2-2-5-5-5--5-5-5-5-5-5--5-5-5-0-0|
A|2-2--2-2-2-2-2-2-2-2-2-2-2--2-2-2-2-2-2-2-2-2-5-5-5--5-5-5-5-5-5--5-5-5-0-0|
D|-----------2-2-2-2-2-2------------2-2-2-2-2-2-4-4-4--4-4-4-5-5-5--5-5-5-0-0|
       .....                  .....             .............................

Verse Cont'd:
e|---------------------------------------------------------------------------|
B|---------------------------------------------------------------------------|
G|---------------------------------------------------------------------------|
D|0--0-0-0-0-0-0-------5-5-5-5-5-5-5-5-5-5-5-5-5-5-5-5-0-0-0-0-0-0-0-0-0-0-0-|
A|0--0-0-0-0-0-0-------5-5-5-5-5-5-5-5-5-5-5-5-5-5-5-5-0-0-0-0-0-0-0-0-0-0-0-|
D|0--0-0-0-0-0-0--12/--4-4-4-4-4-4-4-4-5-5-5-5-5-5-5-5-0-0-0-0-0-0-0-0-0-0-0-|
  ..............

Verse Cont'd:
e|---------------------------------------------------------------------------|
B|---------------------------------------------------------------------------|
G|---------------------------------------------------------------------------|
D|0-0-0-0-0-5-5-5--5-5-5-5-5-5--5-5-5-0-0-0--0-0-0-0-0-0-------5-5-5-5-5-5-5-|
A|0-0-0-0-0-5-5-5--5-5-5-5-5-5--5-5-5-0-0-0--0-0-0-0-0-0-------5-5-5-5-5-5-5-|
D|0-0-0-0-0-4-4-4--4-4-4-5-5-5--5-5-5-0-0-0--0-0-0-0-0-0--12/--4-4-4-4-4-4-4-|
            ............................................

Verse Cont'd:
e|---------------------------------------------------------------------------|
B|---------------------------------------------------------------------------|
G|----------------4-4-4-4-4-4-4-2~-------------------------------------------|
D|5-5-5-5-5-5-5-5-4-4-4-4-4-4-4-2~--4h5p4------------------------------------|
A|5-5-5-5-5-5-5-5-2-2-2-2-2-2-2-0~--------5-7--------------------------------|
D|5-5-5-5-5-5-5-5------------------------------------------------------------|

Chorus:  (Play same thing as Guitar 1)

Interlude:
e|---------------------------------------------------------------------------|
B|---------------------------------------------------------------------------|
G|4-4-6-6-7-7x--7-6---6-7-6----4-4-6-6----------------------4-4-6-6-7-7x-----|
D|4-4-6-6-7-7x------7-------9--4-4-6-6-5-5x--4-5-4---4------4-4-6-6-7-7x-----|
A|2-2-4-4-5-5x-----------------2-2-4-4-5-5x--------7---7-5--2-2-4-4-5-5x-----|
D|-------------------------------------5-5x----------------------------------|
                                             .............

Interlude Cont'd:
e|---------------------------------------------------------------------------|
B|---------------------------------------------------------------------------|
G|7-6---6-7-6----4-4-6-6-----------------------------------------------------|
D|----9-------7--4-4-6-6-5-5x--4-5-4---4------4-5-4---4----------------------|
A|---------------2-2-4-4-5-5x--------7---7-5--------7---7-5------------------|
D|-----------------------5-5x------------------------------------------------|
                               ............................

Next Part:  "Light will..."  (2x)
e|---------------------------------------------------------------------------|
B|---------------------------------------------------------------------------|
G|----0~------7~------7~------7~---------------------------------------------|
D|--4-------7-------7-------7------------------------------------------------|
A|2-------4-------5-------5--------------------------------------------------|
D|---------------------------------------------------------------------------|

Next Part:  "I wish the sun would hide it's..."
e|---------------------------------------------------------------------------|
B|---------------------------------------------------------------------------|
G|---------------------------------------------------------------------------|
D|4-4x---4-4-4-4-4-------------------------------------------------7\--------|
A|2-2x---2-2-2-2-2-2-2x--2-2-2-2-2-5-5x--5-5-5-5-5-5-5x--5-5-5-5-5-----------|
D|-----------------2-2x--2-2-2-2-2-4-4x--4-4-4-4-4-5-5x--5-5-5-5-5-----------|
  ................................................................

Next Part Cont'd:
e|---------------------------------------------------------------------------|
B|---------------------------------------------------------------------------|
G|---------------------------------------------------------------------------|
D|4-4x---4-4-4-4-4-------------------------------------------------7---------|
A|2-2x---2-2-2-2-2-2-2x--2-2-2-2-2-5-5x--5-5-5-5-5-5-5x--5-5-5-5-5-----5~----|
D|-----------------2-2x--2-2-2-2-2-4-4x--4-4-4-4-4-5-5x--5-5-5-5-5-----------|
  ................................................................

Next Part Cont'd:  "I wanna watch you dream..."
e|---------------------------------------------------------------------------|
B|---------------------------------------------------------------------------|
G|---------------------------------------------------------------------------|
D|4/5\4~----4/5\4~--5-5-5----------------------------------------------------|
A|------------------5-5-5----------------------------------------------------|
D|------------------5-5-5----------------------------------------------------|
                    .....

Next Part Cont'd:  "I wanna watch you dream..."  (4x)
e|---------------------------------------------------------------------------|
B|---------------------------------------------------------------------------|
G|---------------------------------------------------------------------------|
D|0-0-0-0-0-0-0-0-5-5-5-5-5-5-5-5--------------------------------------------|
A|0-0-0-0-0-0-0-0-5-5-5-5-5-5-5-5--------------------------------------------|
D|0-0-0-0-0-0-0-0-5-5-5-5-5-5-5-5--------------------------------------------|

Next Part Cont'd:  "I wanna watch you dream..."  (4x)
e|---------------------------------------------------------------------------|
B|---------------------------------------------------------------------------|
G|---------------------------------------------------------------------------|
D|5-5-5x--5-5-5-5-5-5x--5-5-5------------------------------------------------|
A|5-5-5x--5-5-5-5-5-5x--5-5-5------------------------------------------------|
D|4-4-4x--4-4-4-5-5-5x--5-5-5------------------------------------------------|

Part After That:
e|---------------------------------------------------------------------------|
B|---------------------------------------------------------------------------|
G|---------------------------------------------------------------------------|
D|0-0-0-0-0-0-0-0-0-0-0-0-0-0-0-0-7-7-7-7-7-7-7-7-7-7-7-7-7-7-7-7-5-5-5-5-5-5|
A|0-0-0-0-0-0-0-0-0-0-0-0-0-0-0-0-7-7-7-7-7-7-7-7-7-7-7-7-7-7-7-7-5-5-5-5-5-5|
E|0-0-0-0-0-0-0-0-0-0-0-0-0-0-0-0-7-7-7-7-7-7-7-7-7-7-7-7-7-7-7-7-5-5-5-5-5-5|
    ...   ...   ...   ...           ...   ...   ...   ...           ...   ...

Part After That Cont'd:
e|---------------------------------------------------------------------------|
B|---------------------------------------------------------------------------|
G|---------------------------------------------------------------------------|
D|5-5-5-5-5-5-5-9-9-9-9-9-9-5-5-5-5-4h5p4------------------------------------|
A|5-5-5-5-5-5-5-9-9-9-9-9-9-5-5-5-5-------5-7--------------------------------|
E|5-5-5-5-5-5-5-9-9-9-9-9-9-5-5-5-5------------------------------------------|
    ...           ...   ...   ...

Repeat Chorus
4th Time of Chorus:
e|---------------------------------------------------------------------------|
B|---------------------------------------------------------------------------|
G|--------------------7-7-7-7-7----------------------------------------------|
D|5-5-5--5-5--5-5-5-5-7-7-7-7-7-7-7-7-7-7-7----------------------------------|
A|5-5-5--5-5--5-5-5-5-5-5-5-5-5-7-7-7-7-7-7----------------------------------|
D|5-5-5--5-5--5-5-5-5-----------7-7-7-7-7-7----------------------------------|
              .......

Outro:
e|---------------------------------------------------------------------------|
B|---------------------------------------------------------------------------|
G|---------------------------------------------------------------------------|
D|0-0-0-0-0-0-0-0-0-0-0-0-0-0-0-0-7-7-7-7-7-7-7-7-7-7-7-7-7-7-7-7-5-5-5-5-5-5|
A|0-0-0-0-0-0-0-0-0-0-0-0-0-0-0-0-7-7-7-7-7-7-7-7-7-7-7-7-7-7-7-7-5-5-5-5-5-5|
D|0-0-0-0-0-0-0-0-0-0-0-0-0-0-0-0-7-7-7-7-7-7-7-7-7-7-7-7-7-7-7-7-5-5-5-5-5-5|

Outro Cont'd:
e|---------------------------------------------------------------------------|
B|---------------------------------------------------------------------------|
G|---------------------------------------------------------------------------|
D|5-5-5-5-5-5-5-5-5-5-9-9-9-9-9-9-9-9-5-5-5-5-5-5-5-5-0-0-0-0-0-0-0-0-0-0-0-0|
A|5-5-5-5-5-5-5-5-5-5-9-9-9-9-9-9-9-9-5-5-5-5-5-5-5-5-0-0-0-0-0-0-0-0-0-0-0-0|
D|5-5-5-5-5-5-5-5-5-5-9-9-9-9-9-9-9-9-5-5-5-5-5-5-5-5-0-0-0-0-0-0-0-0-0-0-0-0|
                                                        ...   ...   ...   ...

Outro Cont'd:
e|---------------------------------------------------------------------------|
B|---------------------------------------------------------------------------|
G|---------------------------------------------------------------------------|
D|7-7-7-7-7-7-7-7-7-7-7-7-5-5-5-5-5-5-5-5-5-5-5-5-9-9-9-9-9-9-5-5-5-5-5-5-5x-|
A|7-7-7-7-7-7-7-7-7-7-7-7-5-5-5-5-5-5-5-5-5-5-5-5-9-9-9-9-9-9-5-5-5-5-5-5-5x-|
D|7-7-7-7-7-7-7-7-7-7-7-7-5-5-5-5-5-5-5-5-5-5-5-5-9-9-9-9-9-9-5-5-5-5-5-5-5x-|
    ...   ...   ...   ...   ...   ...   ...   ...   ...   ...   ...   ...

GUITAR 3'S PARTS:
-----------------
Intro:  (From 12 seconds to 21 seconds)
e|---------------------------------------------------------------------------|
B|---------------------------------------------------------------------------|
G|---------------------------------------------------------------------------|
D|0-0-0-0-0-0-0-0-0-0-0-0-0-0-0-0-7-7-7-7-7-7-7-7-7-7-7-7-7-7-7-7-5-5-5-5-5-5|
A|0-0-0-0-0-0-0-0-0-0-0-0-0-0-0-0-7-7-7-7-7-7-7-7-7-7-7-7-7-7-7-7-5-5-5-5-5-5|
E|0-0-0-0-0-0-0-0-0-0-0-0-0-0-0-0-7-7-7-7-7-7-7-7-7-7-7-7-7-7-7-7-5-5-5-5-5-5|
    ...   ...   ...   ...           ...   ...   ...   ...           ...   ...

Intro Cont'd:
e|---------------------------------------------------------------------------|
B|---------------------------------------------------------------------------|
G|--------------------------------------7x-----------------------------------|
D|5-5-5-5-5-5-5-9-9-9-9-9-9-5-5-5-5-5-5-5x-----------------------------------|
A|5-5-5-5-5-5-5-9-9-9-9-9-9-5-5-5-5-5-5-5x-----------------------------------|
E|5-5-5-5-5-5-5-9-9-9-9-9-9-5-5-5-5-5-5-5x-----------------------------------|
    ...           ...   ...   ...   ...
Comments