Yellowcard - Ocean Avenue Chords & Tabs

 

Ocean Avenue Chords & Tabs

Yellowcard Chords & Tabs

Version: 3 Type: Tab 4 ratings
1 star 2 stars 3 stars 4 stars 5 stars
comments

Ocean Avenue Tab

   
Ocean Avenue by Yellowcard

in drop-D



intro:
guitar one:
------------------------------------------------------------------------------
------------------------------------------------------------------------------
------------------------------------------------------------------------------
------------------------------------------------------------------------------
---2--22--2-----2--2-2-2-2-2-----0--00--0-----0--0-0-0-0-0


verses:
guitar one:
------------------------------------------------------------------------------
------------------------------------------------------------------------------
------------------------------------------------------------------------------
------------------------------------------------------------------------------
---2--22--2-----2--2-2-2-2-2-----0--00--0-----0--0-0-0-0-0
[ Tab from: http://www.guitartabs.cc/tabs/y/yellowcard/ocean_avenue_tab_ver_3.html ]
guitar two:
------------------------------------------------------------------------------
------------------------------------------------------------------------------
---------------------------9-------------------------------------------------
4/6-----------6/7-------------7------------------------------------------
--------7-----------------------------0-------9----------------------------
------------------------------------------------------------------------------


chorus:

-------------------------------------------------------------------------------------------------------
-------------------------------------------------------------------------3--3--3--3--3--3--3--3
4--4--4--4--4--4--4--4-------6--6--6--6--6--6--6--6------2--2--2--2--2--2--2--2
2--2--2--2--2--2--2--2-------4--4--4--4--4--4--4--4------0--0--0--0--0--0--0--0
2--2--2--2--2--2--2--2-------4--4--4--4--4--4--4--4------0--0--0--0--0--0--0--0
2--2--2--2--2--2--2--2-------4--4--4--4--4--4--4--4------0--0--0--0--0--0--0--0


that’s about it.... i love this song, it’s so much fun to play!!!

by Good Charlotte’s #1 Fan
Comments