Yellowcard - Miles Apart Chords & Tabs

 

Miles Apart Chords & Tabs

Yellowcard Chords & Tabs

Version: 1 Type: Bass Tab

Miles Apart Bass Tab

I know its supposed to be in drop D but Iím lazy and I play it in normal tuning
Intro
G-------------------------------------------------------|
D-------------------------------------------------------|
A-------------------------------------------------------|
E-0-0--x-x-x-x--0-0--0-0--5-5--x-x-x-x--5-5--5-5--------|

G-------------------------------------------------------|
D-------------------------------------------------------|
A-------------------------------------------------------|
E-9-9--x-x-x-x--9-9--9-9--5-5--x-x-x-x--5-5--5-5--------|

Intro Continue

G----------------------------------------------------------------------------|
D----------------------------------------------------------------------------|
A----------------------------------------------------------------------------|
E--0-0-0-0-0-0-0-0-0-0-0-0-0-0-0-0--5-5-5-5-5-5-5-5-5-5-5-5-5-5-5-5----------|

G----------------------------------------------------------------------------|
D----------------------------------------------------------------------------|
A----------------------------------------------------------------------------|
E--9-9-9-9-9-9-9-9-9-9-9-9-9-9-9-9--5-5-5-5-5-5-5-5-5-5-5-5-5-5-5-5----------|

Verse

G----------------------------------------------------------------------------|
D----------------------------------------------------------------------------|
A--5-5-5-5-5-5-5-5-5-5-5-5-5-5-5-5--3-3-3-3-3-3-3-3-3-3-3-3-3-3-3-3----------|
E----------------------------------------------------------------------------|

G----------------------------------------------------------------------------|
D----------------------------------------------------------------------------|
A----------------------------------------------------------------------------|
E--2-2-2-2-2-2-2-2-2-2-2-2-2-2-2-2--5-5-5-5-5-5-5-5-5-5-5-5-5-5-5-5----------|

Chorus
[ Tab from: http://www.guitartabs.cc/tabs/y/yellowcard/miles_apart_btab.html ]
G----------------------------------------------------------------------------|
D----------------------------------------------------------------------------|
A----------------------------------------------------------------------------|
E--0-0-0-0-0-0-0-0-0-0-0-0-0-0-0-0--5-5-5-5-5-5-5-5-5-5-5-5-5-5-5-5----------|

G----------------------------------------------------------------------------|
D----------------------------------------------------------------------------|
A----------------------------------------------------------------------------|
E--9-9-9-9--7-7-7-7--5-5-5-5-------------------------------------------------|

Verse again

Intro again

Chorus again

Bridge

G----------------------------------------------------------------------------|
D----------------------------------------------------------------------------|
A--5-5-5-5-5-5-5-5-5-5-5-5-5-5-5-5/7-7-7-7-7-7-7-7-7-7-7-7-7-7---------------|
E----------------------------------------------------------------------------|

G----------------------------------------------------------------------------|
D----------------------------------------------------------------------------|
A--10-10-10-10-10-10-10-10-10-10-10-10-10-10-10------------------------------|
E----------------------------------------------------------------------------|





G----------------------------------------------------------------------------|
D----------------------------------------------------------------------------|
A--5-5-5-5-5-5-5-5-5-5-5-5-5-------------------------------------------------|
E-----------------------------5-5-5------------------------------------------|

Bridge Continue

G----------------------------------------------------------------------------|
D----------------------------------------------------------------------------|
A----------------------------------------------------------------------------|
E--0-0-0-0-0-0-0-0-0-0-0-0-0-0-0-0--2-2-2-2-2-2-2-2-2-2-2-2-2-2-2-2----------|

G----------------------------------------------------------------------------|
D----------------------------------------------------------------------------|
A----------------------------------------------------------------------------|
E--5-5-5-5-5-5-5-5-5-5-5-5-5-5-5-5--0-0-0-0-0-0-0-0-0-0-0-0-0-0-0-0----------|

Then repeat chorus