Yellowcard - Martin Sheen Or Jfk Chords & Tabs

 

Martin Sheen Or Jfk Chords & Tabs

Yellowcard Chords & Tabs

Version: 1 Type: Bass Tab

Martin Sheen Or Jfk Bass Tab

Song: Martin Sheen or JFK
Band: Yellowcard
Album: Lights and Sounds
Bassist: Pete Mowsley
Tabbed by: Pete Boyle

I've done my best at working out the little flourishes so here it is.
any suggestions please email me on: bobsyauncle_1990@hotmail.com

Verse: 0:02
G|--------------------------------------|
D|--------------------------------------|
A|---------4-4-4---2-2-2--0-0-0-0-0-0-0-|
D|--0-0-0-------------------------------|

G|---------------------------------------------|
D|---------------------------------------------|
A|---------4-4-4--4-2h4p2-2-2-2--0-0-0-0-0-0-0-|
D|--0-0-0--------------------------------------|

Prechorus:
G|--------------------------------|
D|--------------------------------|
A|--------------------------------|
D|--5-5-5-5-7-7-7-7-9-9-9-9-12-11-|
[ Tab from: http://www.guitartabs.cc/tabs/y/yellowcard/martin_sheen_or_jfk_btab.html ]
Chorus:
G|-------------------------------------------------------------------------|
D|-------------------------------------------------------------------------|
A|--2-2-2-2-2-2-2-5-7-9---------------109-7--------------------------------|
D|----------------------0-0-0-0-0-0-0-------5-5-5-5-5-5-5-5-2-2-2-2-4-4-4-4|
(x2)

Postchorus:
G|-------------------------------|
D|-------------------------------|
A|-------------------------------|
D|--5-5-5-4-4-4-0-5-5-5-4-4-4-0--|

Verse
G|-------------------------------------------|
D|-------------------------------------------|
A|---------4-4-4--4-2-0-2-2-2--0-0-0-0-0-0-0-|
D|--0-0-0------------------------------------|

G|-------------------------------------------------|
D|-------------------------------------------------|
A|---------4-4-4--4-2-0-2h4p2-2-2-2--0-0-0-0-0-0-0-|
D|--0-0-0------------------------------------------|

-Prechorus

-Chorus

bridge build up
G|-------------------------------------|
D|-------------------------------------|
A|-------------------------------------|
D|--5-5-5-5-7-7-7-7-9-9-9-9-12-12-12-12|

-rest

Bridge 2:57
G|-------------------------------------|
D|-------------------------------------|
A|-------------------------------------|
D|--5-5-5-5-7-7-7-7-9-9-9-9-12-12-12-12|

-Prechorus

-Chorus (x4)

Thanks.