Yellowcard - Lights And Sounds Chords & Tabs

 

Lights And Sounds Chords & Tabs

Yellowcard Chords & Tabs

Version: 3 Type: Tab

Lights And Sounds Tab

   
Yellowcard - Lights And Sounds
Questions, Comments, Suggestions and Corrections welcome,
please send to will2liv3@hotmail.com (by jC)

Jc

This song is awesome, but i think yellowcard sucks without Ben...
still they rule!!! and this song is one of the well-anticipated tracks in
Yellowcard's new album, soon to be released in Oz, Lights and Sounds..
Should be easy to read... my bad if not..
Well enjoy!!

for mah girl julie=p...

Drop D

Intro

Gtr 1.
e|--------------------------------------------------|
B|--------------------------------------------------|
G|--------------------------------------------------|
D|-99-00-55-00-77-00-99-00-99-00-55-00-22-00-77-00--|X 2
A|-99-00-55-00-77-00-99-00-99-00-55-00-22-00-77-00--|
D|-99-00-55-00-77-00-99-00-99-00-55-00-22-00-77-00--|
 (2nd Part starts at 0:06 with drum roll)

No Gtr 2

Intro Part 2 (0:11) (Drums kick in with bass)

Gtr 1. As Above

Gtr 2. As Above

Verse and Verse Pt. 2

No gtr 1

Gtr 2: (0:22)					Verse Pt. 2
[           x6           ]         		Gtrs 1 and 2
e|-----------------------|     --------------------------------------------|
b|-----------------------|     --------------------------------------------|
g|-----------------------|     --------------------------------------------|
d|-----------------------|     ----------------------------------222-99-55~|
a|-----------------------|     ----------------------------------222-99-55~|
E|-7-99-7-99-7-5-5-4-5-4-|     ----------------------------------222-99-55~|
                                      "make it loud, cause nobody's there"

Pre Chorus (0:39)
[ Tab from: http://www.guitartabs.cc/tabs/y/yellowcard/lights_and_sounds_tab_ver_3.html ]
Gtr 1.and 2.
e|-------------------------------------------------------------|
b|-------------------------------------------------------------|
g|-------------------------------------------------------------|
d|-----------------------222-99-55----------------222-99-55----|
a|-----------------------222-99-55----------------222-99-55----|
E|-----------------------222-99-55----------------222-99-55----|

" Cause nobody's there... Cause nobody's the-ere"

Chorus:
e|-------------------------------------------------------------------------|
b|-------------------------------------------------------------------------|
g|------12/11----------------12/11-------------------------------12/11-----|
d|-0000-----------------4444--------------------------------9999------8888-|
a|-0000-10/9------------4444-10/9---------------------------9999-10/9-8888-|
E|-0000-----------------4444--------------------------------9999------8888-|

Gtr 2
e|-----------------------------------------------------------------------|
b|-----------------------------------------------------------------------|
g|-----------------------------------------------------------------------|
d|-0000-----------------4444--------------------------------9999----8888-|x2
a|-0000-----------------4444--------------------------------9999----8888-|
E|-0000-----------------4444--------------------------------9999----8888-|
 "stop turn take a look around, at all the lights and sounds, let em bring you i-n.."

Verse: as with verse 1 (x8)

Verse Pt.2

Prechorus

Chorus

Bridge: (2:02)

Pt. 1

Guitar 1 plays Intro x4 (3nd time bass and drum roll come in) [ryan sings on 2nd time as well]
Guitar 2 comes after x4 (when drum's hard beat kicks in)
Guitar plays x8 all up until: (2:46)

Chorus: As normal

Chorus 2: Chorus but x1 (song ends in abrubt way)