Yellowcard - For You And Your Denial Chords & Tabs

 

For You And Your Denial Chords & Tabs

Yellowcard Chords & Tabs

Version: 2 Type: Bass Tab

For You And Your Denial Bass Tab

   
-------------------------------------------------------------------------------
			     FOR YOU, AND YOUR DENIAL - Yellowcard
-------------------------------------------------------------------------------

Tabbed By : mariewong.



Tuning: Drop D.



Intro [00:11]

G|--------------------------------------------------|
D|--------------------------------------------------|
A|--2(x13)-000--5(x16)--0(x16)----------------------|
D|------------------------------555555--5-55555555--|



Verse [00:22]

G|--------------------------------------|
D|--------------------------------------|
A|--2(x13)-444--------------------------|
D|--------------0(x16)--7(x16)--5(x16)--|

G|---------------------------------------------------------------------------|
D|---------------------------------------------------------------------------|
A|--22-222-222-22444--55-555-555-55555--00-000-000-00000---------------------|
D|--------------------------------------------------------55-555-5-55555555--|



Chorus [00:44]

G|-----------------------------------------------|
D|-----------------------------------------------|
A|--2(x13)-444--5(x16)----------222-----000-555--|
D|----------------------5(x16)------555----------|

G|-----------------------------------------------|
D|-----------------------------------------------|
A|--2(x13)-444--5(x16)----------222--------------|
D|----------------------5(x16)------555-777-000--|



Pre-verse [01:06]

G|--------------------------------------------------|
D|--------------------------------------------------|
A|--2(x13)-444--5(x16)--0(x16)----------------------|
D|------------------------------555555--5-55555555--|



Verse [01:17]

G|---------------------------------------------------------------------------|
D|---------------------------------------------------------------------------|
A|--22-222-222-22444--55-555-555-55555--00-000-000-00000---------------------|
D|--------------------------------------------------------55-555-5-55555555--|
[ Tab from: http://www.guitartabs.cc/tabs/y/yellowcard/for_you_and_your_denial_btab_ver_2.html ]
G|--------------------------------------------------------------------------|
D|--------------------------------------------------------------------------|
A|--22-222-222-22444--55-555-555-55555--00-000-000-00000--------------------|
D|--------------------------------------------------------55-555-555-55555--|

G|---------------------|
D|---------------------|
A|---------------------|
D|--77-777-7-77777777--|



Chorus [01:41]

G|-----------------------------------------------|
D|-----------------------------------------------|
A|--2(x13)-444--5(x16)----------222--------------|
D|----------------------5(x16)------555-777-000--|

G|-----------------------------------------------|
D|-----------------------------------------------|
A|--2(x13)-444--5(x16)----------222--------------|
D|----------------------5(x16)------555-777-000--|

G|-------------------|
D|-------------------|
A|--222--------------|
D|------555-777-000--|



Bridge [02:09]

G|---------------------------------------------------------------------------|
D|-------------------------------------------------------------4444----------|
A|----------------------------------------------2222-4444-5555---------------|
D|--5(x16)--\5(x16)--4(x12)-0000--5(x8)--4(x8)-----------------------5(x16)--|

G|--------------------------------------------------|
D|--------------------------------------------4444--|
A|-----------------------------2222-4444-5555-------|
D|--4(x12)-0000--5(x8)--4(x8)-----------------------|



Chorus [02:44]

G|-------------------|
D|-------------------|
A|--222--------------|
D|------555-777-000--|

G|-----------------------------------------------|
D|-----------------------------------------------|
A|--2(x13)-444--5(x16)----------222-----000-555--|
D|----------------------5(x16)------555----------|

G|-----------------------------------------------|
D|-----------------------------------------------|
A|--2(x13)-444--5(x16)----------222--------------|
D|----------------------5(x16)------555-777-000--|

G|---------------------------------------------------------------|
D|---------------------------------------------------------------|
A|--222-----000-555----222----------------222-----000-555--------|
D|------555----------------555-777-000--------555------------0~--|





| /  slide up
| \  slide down
| h  hammer-on
| p  pull-off
| ~  vibrato
| +  harmonic
| x  Mute note
===============================================================================