Yellowcard - Firewater Chords & Tabs

 

Firewater Chords & Tabs

Yellowcard Chords & Tabs

Version: 2 Type: Tab 0 ratings
1 star 2 stars 3 stars 4 stars 5 stars
comments

Firewater Tab

   
This song was tricky to figure out but I'm pretty sure 
that I've got most of it. I arranged this for one guitar.
(Except for the bridge. You can choose which part you wanna
play; I like playing guitar 2's part during the bridge but 
it's up to you) 
Tuning is weird though, he tunes his d string up to an e to 
get that octave sound.

Tuning (Low to High): E a E g b E
d= downstroke
u= upstoke
~= let note ring
x= mute note; shucka

Tabbed by: Grant Blanco

Intro:
e|-0-0-0-0---0-0-0-0-0-0-0---0-0-0-0-0-0-0---0-0-0-0-0-0-0-0-0-0-0-|
b|-9-9-9-9---9-9-9-7-7-7-7---7-7-7-5-5-5-5---5-5-5-0-0-0-0-0-0-0-0-|
g|-9-9-9-9---9-9-9-8-8-8-8---8-8-8-6-6-6-6---6-6-6-1-1-1-1-2-2-2-2-|
e|-0-0-0-0---0-0-0-0-0-0-0---0-0-0-0-0-0-0---0-0-0-0-0-0-0-0-0-0-0-|
a|-----------------------------------------------------------------|
E|-----------------------------------------------------------------|
   d u d u   u d u d u d u   u d u d u d u   u d u d u d u d u d u

e|-0-0-0-0---0-0-0-0-0-0-0---0-0-0-0-0-0-0---0-0-0-0-0-0-0-0-0-0-0-|
b|-9-9-9-9---9-9-9-7-7-7-7---7-7-7-5-5-5-5---5-5-5-0-0-0-0-0-0-0-0-|
g|-9-9-9-9---9-9-9-8-8-8-8---8-8-8-6-6-6-6---6-6-6-1-1-1-1-2-2-2-2-|
e|-0-0-0-0---0-0-0-0-0-0-0---0-0-0-0-0-0-0---0-0-0-0-0-0-0-0-0-0-0-|
a|-----------------------------------------------------------------|
E|-----------------------------------------------------------------|
   d u d u   u d u d u d u   u d u d u d u   u d u d u d u d u d u

e|-0-0-0-0---0-0-0-0-0-0-0---0-0-0-0-0-0-0---0-0-0-0-0-0-0-0-0-0-0-|
b|-9-9-9-9---9-9-9-7-7-7-7---7-7-7-5-5-5-5---5-5-5-0-0-0-0-0-0-0-0-|
g|-9-9-9-9---9-9-9-8-8-8-8---8-8-8-6-6-6-6---6-6-6-1-1-1-1-2-2-2-2-|
e|-0-0-0-0---0-0-0-0-0-0-0---0-0-0-0-0-0-0---0-0-0-0-0-0-0-0-0-0-0-|
a|-----------------------------------------------------------------|
E|-----------------------------------------------------------------|
   d u d u   u d u d u d u   u d u d u d u   u d u d u d u d u d u    
      "You sat me down beside my self"

e|-0-0-0-0---0-0-0-0-0-0-0---0-0-0-0-0-0-0---0-0-0-0-0-0-0-0-0-0-0-|
b|-9-9-9-9---9-9-9-7-7-7-7---7-7-7-5-5-5-5---5-5-5-0-0-0-0-0-0-0-0-|
g|-9-9-9-9---9-9-9-8-8-8-8---8-8-8-6-6-6-6---6-6-6-1-1-1-1-2-2-2-2-|
e|-0-0-0-0---0-0-0-0-0-0-0---0-0-0-0-0-0-0---0-0-0-0-0-0-0-0-0-0-0-|
a|-----------------------------------------------------------------|
E|-----------------------------------------------------------------|
   d u d u   u d u d u d u   u d u d u d u   u d u d u d u d u d u    
      "to show me all the reasons I was wrong for you"

e|-0-0-0-0---0-0-0-0-0-0-0---0-0-0-0-0-0-0---0-0-0-0-0-0-0-0-0-0-0-|
b|-9-9-9-9---9-9-9-7-7-7-7---7-7-7-5-5-5-5---5-5-5-0-0-0-0-0-0-0-0-|
g|-9-9-9-9---9-9-9-8-8-8-8---8-8-8-6-6-6-6---6-6-6-1-1-1-1-2-2-2-2-|
e|-0-0-0-0---0-0-0-0-0-0-0---0-0-0-0-0-0-0---0-0-0-0-0-0-0-0-0-0-0-|
a|-----------------------------------------------------------------|
E|-----------------------------------------------------------------|
   d u d u   u d u d u d u   u d u d u d u   u d u d u d u d u d u   
      "was this for real? It's hard to tell"

e|-0-0-0-0---0-0-0-0-0-0-0---0-0-0-0-0-0-0---0-0-0-0-0-0-0-0-0-0-0-|
b|-9-9-9-9---9-9-9-7-7-7-7---7-7-7-5-5-5-5---5-5-5-0-0-0-0-0-0-0-0-|
g|-9-9-9-9---9-9-9-8-8-8-8---8-8-8-6-6-6-6---6-6-6-1-1-1-1-2-2-2-2-|
e|-0-0-0-0---0-0-0-0-0-0-0---0-0-0-0-0-0-0---0-0-0-0-0-0-0-0-0-0-0-|
a|-----------------------------------------------------------------|
E|-----------------------------------------------------------------| 
   d u d u   u d u d u d u   u d u d u d u   u d u d u d u d u d u   
      "Cause it was such a beautiful mess we had got into."

e|-----0-------------2-------------7-------------7-----------------|
b|---0-----0---0---0-----0---0---5-----5---5---5-------------------|
g|-2---------2---2---------2---------------------------------------|
e|-----------------------------5---------5---5---------------------|
a|-----------------------------------------------------------------|
E|-----------------------------------------------------------------|
   d d u   u d u d d u   u d u d d u   u d u d d u

Verse 1:
e|-----0---0-0-0-------------------------0---0---0---0-0-0-0-0-0-0-|
b|-----0---0-0-0-2---2-2---2-2-2-2-2-2---0---0---0---0-0-0-0-0-0-0-|
g|-----1---1-1-1-2---2-2---2-2-2-2-2-2---2---2---1---1-1-1-1-1-1-1-|
e|-----0---0-0-0-0---0-0---0-0-0-0-0-0---2---2---0---0-0-0-0-0-0-0-|
a|-2---2---2-2-2-0---0-0---0-0-0-0-x-x---2---2---2---2-2-2-2-2-2-2-|
E|-0---0---0-0-0-------------------2-2---0---0---0---0-0-0-0-0-0-0-|
   d   d   d u d u   u d   d u d u d u   u   u   u   u d u d u d u
   "I'm gonna overcome this, paper hearts can't win this time"

e|-----0---0-0-0-------------------------0---0---0---0-0-0-0-0-0-0-|
b|-----0---0-0-0-2---2-2---2-2-2-2-2-2---0---0---0---0-0-0-0-0-0-0-|
g|-----1---1-1-1-2---2-2---2-2-2-2-2-2---2---2---1---1-1-1-1-1-1-1-|
e|-----0---0-0-0-0---0-0---0-0-0-0-0-0---2---2---0---0-0-0-0-0-0-0-|
a|-2---2---2-2-2-0---0-0---0-0-0-0-x-x---2---2---2---2-2-2-2-2-2-2-|
E|-0---0---0-0-0-------------------2-2---0---0---0---0-0-0-0-0-0-0-|
   d   d   d u d u   u d   d u d u d u   u   u   u   u d u d u d u
   "And all along I should've known this wasn't your dream it was mine."

e|-----0---0-0-0-------------------------0---0---0---0-0-0-0-0-0-0-|
b|-----0---0-0-0-2---2-2---2-2-2-2-2-2---0---0---0---0-0-0-0-0-0-0-|
g|-----1---1-1-1-2---2-2---2-2-2-2-2-2---2---1---1---1-1-1-1-1-1-1-|
e|-----0---0-0-0-0---0-0---0-0-0-0-0-0---2---2---0---0-0-0-0-0-0-0-|
a|-2---2---2-2-2-0---0-0---0-0-0-0-x-x---2---2---2---2-2-2-2-2-2-2-|
E|-0---0---0-0-0-------------------2-2---0---0---0---0-0-0-0-0-0-0-|
   d   d   d u d u   u d   d u d u d u   u   u   u   u d u d u d u
   "I know you wanted me           to give up this life to be"

e|-----0---0-0-0-------------------------0---0---0---0-0-0-0-0-0-0-|
b|-----0---0-0-0-2---2-2---2-2-2-2-2-2---0---0---0---0-0-0-0-0-0-0-|
g|-----1---1-1-1-2---2-2---2-2-2-2-2-2---2---1---1---1-1-1-1-1-1-1-|
e|-----0---0-0-0-0---0-0---0-0-0-0-0-0---2---2---0---0-0-0-0-0-0-0-|
a|-2---2---2-2-2-0---0-0---0-0-0-0-x-x---2---2---2---2-2-2-2-2-2-2-|
E|-0---0---0-0-0-------------------2-2---0---0---0---0-0-0-0-0-0-0-|
   d   d   d u d u   u d   d u d u d u   u   u   u   u d u d u d u 
   "Everything I was back when you had the hands my heart was in."

e|-------------------------------------------------0~--------------|
b|-2-2-2-2-2-2-2-2-----------------2-2-2-2-2-2-2-2-2~--------------|
g|-2-2-2-2-2-2-2-2-4-4-4-4-4-4-4-4-2-2-2-2-2-2-2-2-2~--------------|
e|-0-0-0-0-0-0-0-0-2-2-2-2-2-2-2-2-0-0-0-0-0-0-0-0-0~--------------|
a|-x-x-x-x-x-x-x-x-x-x-x-x-x-x-x-x-0-0-0-0-0-0-0-0-0~--------------|
E|-2-2-2-2-2-2-2-2-4-4-4-4-4-4-4-4---------------------------------|
   d u d u d u d u d u d u d u d u d u d u d u d u d
   "I      was     never          good  at  goodbye."

Chorus:
e|-0---0---0-0-0-0---0-0---0-0-0-0-4---4---4-4-4-4---4-4---4-4-4-4-|
b|-0---0---0-0-0-0---0-0---0-0-0-0-5---5---5-5-5-5---5-5---5-5-5-5-|
g|-1---1---1-1-1-1---1-1---1-1-1-1-6---6---6-6-6-6---6-6---6-6-6-6-|
e|-0---0---0-0-0-0---0-0---0-0-0-0-4---4---4-4-4-4---4-4---4-4-4-4-|
a|-2---2---2-2-2-2---2-2---2-2-2-2-4---4---4-4-4-4---4-4---4-4-4-4-|
E|-0---0---0-0-0-0---0-0---0-0-0-0---------------------------------|
   d   d   d u d u   u d   d u d u d   d   d u d u   u d   d u d u 
  "Can   I     swallow      this    bottle   whole?         So this"

e|-----------------------------------------------------------------|
b|-2-2-2-2---2-x-2---2-x-2---2-----4-4-4-4-4-5---2---2-2-2-2-2-2-2-|
g|-2-2-2-2---2-x-2---2-x-2---2-----4-4-4-4-4-4---2---2-2-2-2-2-2-2-|
e|-0-0-0-0---0-x-4---4-x-2---2-----0-0-0-0-0-0---0---0-0-0-0-0-0-0-|
a|-0-0-0-0---0-x-0---0-x-0---0-----0-0-0-0-0-0---0---0-0-0-0-0-0-0-|
E|-----------------------------------------------------------------|
   d u d u   u   u   u   u   u     d u d u d u   u   u d u d u d u
   "Brain in my head,    can forget your face."

e|-0---0-0-0-0-0-x-------------0-0-0-|
b|-0---0-0-0-0-0-x-2-x-2-x-2-x-0-0-0-|
g|-2---2-2-2-2-2-x-2-x-2-x-2-x-1-1-1-|
e|-4---4-4-4-4-4-x-2-x-4-x-2-x-0-0-0-|
a|-0---0-0-0-0-0-x-0-x-0-x-0-x-2-2-2-|
E|-----------------------------0-0-0-|
   u   u d u d u   u   u   u   u d u 

Verse 2:
P.M.
e|-----------------------------------------------------------------|
b|-----------------------------------------------------------------|
g|-----9-------9-------9-------9-------9-------9-------9-------9---|
e|-----------------------------------------------------------------|
a|-7-7---7-7-7---7-------------------------------------------------|
E|-----------------9-9---9-9-9---9-7-7---7-7-7---7-0-0---0-0-0---0-|
   d d u d d d u d d d u d d d u d d d u d d d u d d d u d d d u d
   "When we were starting out, you believed in me without a doubt."

P.M.
e|-----------------------------------------------------------------|
b|-----------------------------------------------------------------|
g|-----9-------9-------9-------9-------9-------9-------9-----------|
e|-----------------------------------------------------------------|
a|-7-7---7-7-7---7-------------------------------------------------|
E|-----------------9-9---9-9-9---9-7-7---7-7-7---7-0-0---0-0~------|
   d d u d d d u d d d u d d d u d d d u d d d u d d d u d d d u d
   "You were the finest thing, that happened to a boy like me."

e|-0-0-x-0---0-x-----x-x-x-x-x-x-x-----x-0-x-0-x-0---x-x-x-x-x-x-x-|
b|-0-0-x-0---0-x-2---x-x-x-x-x-x-x-2-2-x-0-x-0-x-0---x-x-x-x-x-x-x-|
g|-1-1-x-1---1-x-2---x-x-x-x-x-x-x-2-2-x-2-x-1-x-1---x-x-x-x-x-x-x-|
e|-0-0-x-0---0-x-0---x-x-x-x-x-x-x-0-0-x-2-x-2-x-0---x-x-x-x-x-x-x-|
a|-2-2-x-2---2-x-0---x-x-x-x-x-x-x-x-x-x-2-x-2-x-2---x-x-x-x-x-x-x-|
E|-0-0-x-4---4-x-----x-x-x-x-x-x-x-2-2-x-0-x-0-x-0---x-x-x-x-x-x-x-|
   d u   u   u   u   u d u d u d u d u   u   u   u   u d u d u d u 
   "It's so much harder now,       I wanna try and tell you how."

e|-0-0-x-0---0-x-----x-x-x-x-x-x-x-----x-0-x-0-x-0---x-x-x-x-x-x-x-|
b|-0-0-x-0---0-x-2---x-x-x-x-x-x-x-2-2-x-0-x-0-x-0---x-x-x-x-x-x-x-|
g|-1-1-x-1---1-x-2---x-x-x-x-x-x-x-2-2-x-2-x-1-x-1---x-x-x-x-x-x-x-|
e|-0-0-x-0---0-x-0---x-x-x-x-x-x-x-0-0-x-2-x-2-x-0---x-x-x-x-x-x-x-|
a|-2-2-x-2---2-x-0---x-x-x-x-x-x-x-x-x-x-2-x-2-x-2---x-x-x-x-x-x-x-|
E|-0-0-x-4---4-x-----x-x-x-x-x-x-x-2-2-x-0-x-0-x-0---x-x-x-x-x-x-x-|
   d u   u   u   u   u d u d u d u d u   u   u   u   u d u d u d u 
   "There is so much love in me,   Even though it's hard to see. And"

e|-------------------------------------------------0~--------------|
b|-2-2-2-2-2-2-2-2-----------------2-2-2-2-2-2-2-2-2~--------------|
g|-2-2-2-2-2-2-2-2-4-4-4-4-4-4-4-4-2-2-2-2-2-2-2-2-2~--------------|
e|-0-0-0-0-0-0-0-0-2-2-2-2-2-2-2-2-0-0-0-0-0-0-0-0-0~--------------|
a|-x-x-x-x-x-x-x-x-x-x-x-x-x-x-x-x-0-0-0-0-0-0-0-0-0~--------------|
E|-2-2-2-2-2-2-2-2-4-4-4-4-4-4-4-4---------------------------------|
   d u d u d u d u d u d u d u d u d u d u d u d u d
   "I      was     never          good   at  goodbye."

Chorus:
e|-0---0---0-0-0-0---0-0---0-0-0-0-4---4---4-4-4-4---4-4---4-4-4-4-|
b|-0---0---0-0-0-0---0-0---0-0-0-0-5---5---5-5-5-5---5-5---5-5-5-5-|
g|-1---1---1-1-1-1---1-1---1-1-1-1-6---6---6-6-6-6---6-6---6-6-6-6-|
e|-0---0---0-0-0-0---0-0---0-0-0-0-4---4---4-4-4-4---4-4---4-4-4-4-|
a|-2---2---2-2-2-2---2-2---2-2-2-2-4---4---4-4-4-4---4-4---4-4-4-4-|
E|-0---0---0-0-0-0---0-0---0-0-0-0---------------------------------|
   d   d   d u d u   u d   d u d u d   d   d u d u   u d   d u d u 
  "Can   I     swallow      this    bottle   whole?         So this"

e|-----------------------------------------------------------------|
b|-2-2-2-2---2-x-2---2-x-2---2-----4-4-4-4-4-5---2---2-2-2-2-2-2-2-|
g|-2-2-2-2---2-x-2---2-x-2---2-----4-4-4-4-4-4---2---2-2-2-2-2-2-2-|
e|-0-0-0-0---0-x-4---4-x-2---2-----0-0-0-0-0-0---0---0-0-0-0-0-0-0-|
a|-0-0-0-0---0-x-0---0-x-0---0-----0-0-0-0-0-0---0---0-0-0-0-0-0-0-|
E|-----------------------------------------------------------------|
   d u d u   u   u   u   u   u     d u d u d u   u   u d u d u d u
   "Brain in my head,    can forget your face."

e|-0---0---0-0-0-0---0-0---0-0-0-0-4---4---4-4-4-4---4-4---4-4-4-4-|
b|-0---0---0-0-0-0---0-0---0-0-0-0-5---5---5-5-5-5---5-5---5-5-5-5-|
g|-1---1---1-1-1-1---1-1---1-1-1-1-6---6---6-6-6-6---6-6---6-6-6-6-|
e|-0---0---0-0-0-0---0-0---0-0-0-0-4---4---4-4-4-4---4-4---4-4-4-4-|
a|-2---2---2-2-2-2---2-2---2-2-2-2-4---4---4-4-4-4---4-4---4-4-4-4-|
E|-0---0---0-0-0-0---0-0---0-0-0-0---------------------------------|
   d   d   d u d u   u d   d u d u d   d   d u d u   u d   d u d u 
  "Can   I     swallow      this    bottle   whole?         'Cause I'd"
[ Tab from: http://www.guitartabs.cc/tabs/y/yellowcard/firewater_tab_ver_2.html ]
e|-----------------------------------------------------------------|
b|-2-2-2-2---2-x-2---2-x-2---2-----4-4-4-4-4-5---2---2-2-2-2-2-2-2-|
g|-2-2-2-2---2-x-2---2-x-2---2-----4-4-4-4-4-4---2---2-2-2-2-2-2-2-|
e|-0-0-0-0---0-x-4---4-x-2---2-----0-0-0-0-0-0---0---0-0-0-0-0-0-0-|
a|-0-0-0-0---0-x-0---0-x-0---0-----0-0-0-0-0-0---0---0-0-0-0-0-0-0-|
E|-----------------------------------------------------------------|
   d u d u   u   u   u   u   u     d u d u d u   u   u d u d u d u
  "Rather   be   dead,         than     make   more    mistakes."

e|-0---0-0-0-0-0-x---------------x-0-|
b|-0---0-0-0-0-0-x-2---2-2-2-2-2-x-0-|
g|-2---2-2-2-2-2-x-2---2-2-2-2-2-x-1-|
e|-4---4-4-4-4-4-x-2---2-2-2-2-2-x-0-|
a|-0---0-0-0-0-0-x-0---0-0-0-0-0-x-2-|
E|-------------------------------x-0-|
   u   u d u d u   u   u d u d u   u

Bridge: (Guitar 1)
E|-7-7-7-7-7-7-7-7-7-7-7-7-7-7-7-7-7-7-7-7-7-7-7-7-7-7-7-7-7-7-7-7-|
b|-x-x-x-x-x-x-x-x-x-x-x-x-x-x-x-x-x-x-x-x-x-x-x-x-x-x-x-x-x-x-x-x-|
g|-4-4-4-4-4-4-4-4-4-4-4-4-4-4-4-4-4-4-4-4-4-4-4-4-4-4-4-4-4-4-4-4-|
e|-----------------------------------------------------------------|
a|-----------------------------------------------------------------|
E|-----------------------------------------------------------------|
   d u d u d u d u d u d u d u d u d u d u d u d u d u d u d u d u 

(Guitar 1)
E|-7-7-7-7-7-7-7-7-7-7-7-7-7-7-7-7-7-7-7-7-7-7-7-7-7-7-7-7-7-7-7-7-|
b|-x-x-x-x-x-x-x-x-x-x-x-x-x-x-x-x-x-x-x-x-x-x-x-x-x-x-x-x-x-x-x-x-|
g|-4-4-4-4-4-4-4-4-4-4-4-4-4-4-4-4-4-4-4-4-4-4-4-4-4-4-4-4-4-4-4-4-|
e|-----------------------------------------------------------------|
a|-----------------------------------------------------------------|
E|-----------------------------------------------------------------|
   d u d u d u d u d u d u d u d u d u d u d u d u d u d u d u d u 
           "Today I couldn't stay awake."

(Guitar 2) 
e|-------------------------------------------------0-0-0-0-0-0-0-0-|
b|-------------------------------------------------0-0-0-0-0-0-0-0-|
g|-------------------------------------------------1-1-1-1-1-1-1-1-|
e|-------------------------------------------------0-0-4-4-4-4-0-0-|
a|-------------------------------------------------2-2-2-2-2-2-2-2-|
E|-------------------------------------------------0-0-0-0-0-0-0-0-|             
                                                   d u d u d u d u
(Guitar 1)
E|-7-7-7-7-7-7-7-7-7-7-7-7-7-7-7-7-7-7-7-7-7-7-7-7-7-7-7-7-7-7-7-7-|
b|-x-x-x-x-x-x-x-x-x-x-x-x-x-x-x-x-x-x-x-x-x-x-x-x-x-x-x-x-x-x-x-x-|
g|-4-4-4-4-4-4-4-4-4-4-4-4-4-4-4-4-4-4-4-4-4-4-4-4-4-4-4-4-4-4-4-4-|
e|-----------------------------------------------------------------|
a|-----------------------------------------------------------------|
E|-----------------------------------------------------------------|
   d u d u d u d u d u d u d u d u d u d u d u d u d u d u d u d u 
           "Feels like I'm drowning in this firewater lake."

(Guitar 2) 
e|-------------------------------------------------0-0-0-0-0-0-0-0-|
b|-------------------------------------------------0-0-0-0-0-0-0-0-|
g|-------------------------------------------------1-1-1-1-1-1-1-1-|
e|-------------------------------------------------0-0-4-4-4-4-0-0-|
a|-------------------------------------------------2-2-2-2-2-2-2-2-|
E|-------------------------------------------------0-0-0-0-0-0-0-0-|             
                                                   d u d u d u d u
(Guitar 1)
E|-7-7-7-7-7-7-7-7-7-7-7-7-7-7-7-7-7-7-7-7-7-7-7-7-7-7-7-7-7-7-7-7-|
b|-x-x-x-x-x-x-x-x-x-x-x-x-x-x-x-x-x-x-x-x-x-x-x-x-x-x-x-x-x-x-x-x-|
g|-4-4-4-4-4-4-4-4-4-4-4-4-4-4-4-4-4-4-4-4-4-4-4-4-4-4-4-4-4-4-4-4-|
e|-----------------------------------------------------------------|
a|-----------------------------------------------------------------|
E|-----------------------------------------------------------------|
   d u d u d u d u d u d u d u d u d u d u d u d u d u d u d u d u 
           "I won't be sleeping much tonight."

(Guitar 2) 
e|-------------------------------------------------0-0-0-0-0-0-0-0-|
b|-------------------------------------------------0-0-0-0-0-0-0-0-|
g|-------------------------------------------------1-1-1-1-1-1-1-1-|
e|-------------------------------------------------0-0-4-4-4-4-0-0-|
a|-------------------------------------------------2-2-2-2-2-2-2-2-|
E|-------------------------------------------------0-0-0-0-0-0-0-0-|             
                                                   d u d u d u d u

(Guitar 1)
E|-7-7-7-7-7-7-7-7-7-7-7-7-7-7-7-7-7-7-7-7-7-7-7-7-7-7-7-7-7-7-7-7-|
b|-x-x-x-x-x-x-x-x-x-x-x-x-x-x-x-x-x-x-x-x-x-x-x-x-x-x-x-x-x-x-x-x-|
g|-4-4-4-4-4-4-4-4-4-4-4-4-4-4-4-4-4-4-4-4-4-4-4-4-4-4-4-4-4-4-4-4-|
e|-----------------------------------------------------------------|
a|-----------------------------------------------------------------|
E|-----------------------------------------------------------------|
   d u d u d u d u d u d u d u d u d u d u d u d u d u d u d u d u 
           "It's not the same without you lying by my side."

(Guitar 2) 
e|-------------------------------------------------0-0-0-0-0-0-0-0-|
b|-------------------------------------------------0-0-0-0-0-0-0-0-|
g|-------------------------------------------------1-1-1-1-1-1-1-1-|
e|-------------------------------------------------0-0-4-4-4-4-0-0-|
a|-------------------------------------------------2-2-2-2-2-2-2-2-|
E|-------------------------------------------------0-0-0-0-0-0-0-0-|             
                                                   d u d u d u d u

(Guitar 1) 
e|-----0-------------2-------------7-------------7-----------------|
b|---0-----0---0---0-----0---0---5-----5---5---5-------------------|
g|-2---------2---2---------2---------------------------------------|
e|-----------------------------5---------5---5---------------------|
a|-----------------------------------------------------------------|
E|-----------------------------------------------------------------|
   d d u   u d u d d u   u d u d d u   u d u d d u
   "Right             beside                me."

Chorus:
e|-0---0---0-0-0-0---0-0---0-0-0-0-4---4---4-4-4-4---4-4---4-4-4-4-|
b|-0---0---0-0-0-0---0-0---0-0-0-0-5---5---5-5-5-5---5-5---5-5-5-5-|
g|-1---1---1-1-1-1---1-1---1-1-1-1-6---6---6-6-6-6---6-6---6-6-6-6-|
e|-0---0---0-0-0-0---0-0---0-0-0-0-4---4---4-4-4-4---4-4---4-4-4-4-|
a|-2---2---2-2-2-2---2-2---2-2-2-2-4---4---4-4-4-4---4-4---4-4-4-4-|
E|-0---0---0-0-0-0---0-0---0-0-0-0---------------------------------|
   d   d   d u d u   u d   d u d u d   d   d u d u   u d   d u d u 
  "Can   I     swallow      this    bottle   whole?         So this"

e|-----------------------------------------------------------------|
b|-2-2-2-2---2-x-2---2-x-2---2-----4-4-4-4-4-5---2---2-2-2-2-2-2-2-|
g|-2-2-2-2---2-x-2---2-x-2---2-----4-4-4-4-4-4---2---2-2-2-2-2-2-2-|
e|-0-0-0-0---0-x-4---4-x-2---2-----0-0-0-0-0-0---0---0-0-0-0-0-0-0-|
a|-0-0-0-0---0-x-0---0-x-0---0-----0-0-0-0-0-0---0---0-0-0-0-0-0-0-|
E|-----------------------------------------------------------------|
   d u d u   u   u   u   u   u     d u d u d u   u   u d u d u d u
   "Brain in my head,    can forget your face."

e|-0---0---0-0-0-0---0-0---0-0-0-0-4---4---4-4-4-4---4-4---4-4-4-4-|
b|-0---0---0-0-0-0---0-0---0-0-0-0-5---5---5-5-5-5---5-5---5-5-5-5-|
g|-1---1---1-1-1-1---1-1---1-1-1-1-6---6---6-6-6-6---6-6---6-6-6-6-|
e|-0---0---0-0-0-0---0-0---0-0-0-0-4---4---4-4-4-4---4-4---4-4-4-4-|
a|-2---2---2-2-2-2---2-2---2-2-2-2-4---4---4-4-4-4---4-4---4-4-4-4-|
E|-0---0---0-0-0-0---0-0---0-0-0-0---------------------------------|
   d   d   d u d u   u d   d u d u d   d   d u d u   u d   d u d u 
  "Can   I     swallow      this    bottle   whole?         'Cause I'd"

e|-----------------------------------------------------------------|
b|-2-2-2-2---2-x-2---2-x-2---2-----4-4-4-4-4-5---2---2-2-2-2-2-2-2-|
g|-2-2-2-2---2-x-2---2-x-2---2-----4-4-4-4-4-4---2---2-2-2-2-2-2-2-|
e|-0-0-0-0---0-x-4---4-x-2---2-----0-0-0-0-0-0---0---0-0-0-0-0-0-0-|
a|-0-0-0-0---0-x-0---0-x-0---0-----0-0-0-0-0-0---0---0-0-0-0-0-0-0-|
E|-----------------------------------------------------------------|
   d u d u   u   u   u   u   u     d u d u d u   u   u d u d u d u
  "Rather   be   dead,         than     make   more    mistakes."

e|-0---0---0-0-0-0---0-0---0-0-0-0-4---4---4-4-4-4---4-4---4-4-4-4-|
b|-0---0---0-0-0-0---0-0---0-0-0-0-5---5---5-5-5-5---5-5---5-5-5-5-|
g|-1---1---1-1-1-1---1-1---1-1-1-1-6---6---6-6-6-6---6-6---6-6-6-6-|
e|-0---0---0-0-0-0---0-0---0-0-0-0-4---4---4-4-4-4---4-4---4-4-4-4-|
a|-2---2---2-2-2-2---2-2---2-2-2-2-4---4---4-4-4-4---4-4---4-4-4-4-|
E|-0---0---0-0-0-0---0-0---0-0-0-0---------------------------------|
   d   d   d u d u   u d   d u d u d   d   d u d u   u d   d u d u 
   "Can  I     swallow      this    bottle     whole?"
   (I know you wanted me, to give up my life to be) 

e|-0---0---0-0-0-0---0-0---0-0-0-0-4---4---4-4-4-4---4-4---4-4-4-4-|
b|-0---0---0-0-0-0---0-0---0-0-0-0-5---5---5-5-5-5---5-5---5-5-5-5-|
g|-1---1---1-1-1-1---1-1---1-1-1-1-6---6---6-6-6-6---6-6---6-6-6-6-|
e|-0---0---0-0-0-0---0-0---0-0-0-0-4---4---4-4-4-4---4-4---4-4-4-4-|
a|-2---2---2-2-2-2---2-2---2-2-2-2-4---4---4-4-4-4---4-4---4-4-4-4-|
E|-0---0---0-0-0-0---0-0---0-0-0-0---------------------------------|
   d   d   d u d u   u d   d u d u d   d   d u d u   u d   d u d u 
   "Can  I     swallow      this    bottle     whole?"
   (Everything I am when you're the only thing that I can see.)

e|-0---0---0-0-0-0---0-0---0-0-0-0-4---4---4-4-4-4---4-4---4-4-4-4-|
b|-0---0---0-0-0-0---0-0---0-0-0-0-5---5---5-5-5-5---5-5---5-5-5-5-|
g|-1---1---1-1-1-1---1-1---1-1-1-1-6---6---6-6-6-6---6-6---6-6-6-6-|
e|-0---0---0-0-0-0---0-0---0-0-0-0-4---4---4-4-4-4---4-4---4-4-4-4-|
a|-2---2---2-2-2-2---2-2---2-2-2-2-4---4---4-4-4-4---4-4---4-4-4-4-|
E|-0---0---0-0-0-0---0-0---0-0-0-0---------------------------------|
   d   d   d u d u   u d   d u d u d   d   d u d u   u d   d u d u 
   "Can  I     swallow      this    bottle     whole?         So this"
   (I'm sorry but you're not the, not the only one for me.)

e|-----------------------------------------------------------------|
b|-2-2-2-2---2-x-2---2-x-2---2-----4-4-4-4-4-5---2---2-2-2-2-2-2-2-|
g|-2-2-2-2---2-x-2---2-x-2---2-----4-4-4-4-4-4---2---2-2-2-2-2-2-2-|
e|-0-0-0-0---0-x-4---4-x-2---2-----0-0-0-0-0-0---0---0-0-0-0-0-0-0-|
a|-0-0-0-0---0-x-0---0-x-0---0-----0-0-0-0-0-0---0---0-0-0-0-0-0-0-|
E|-----------------------------------------------------------------|
   d u d u   u   u   u   u   u     d u d u d u   u   u d u d u d u
   "Brain in my head,    can forget your face."

e|-0---0-0-0-0-0-x---------------x-0-|
b|-0---0-0-0-0-0-x-2---2-2-2-2-2-x-0-|
g|-2---2-2-2-2-2-x-2---2-2-2-2-2-x-1-|
e|-4---4-4-4-4-4-x-2---2-2-2-2-2-x-0-|
a|-0---0-0-0-0-0-x-0---0-0-0-0-0-x-2-|
E|-------------------------------x-0-|
   u   u d u d u   u   u d u d u   u

Outro:
e|-0-0-0-0---0-0-0-0-0-0-0---0-0-0-0-0-0-0---0-0-0-0-0-0-0-0-0-0-0-|
b|-9-9-9-9---9-9-9-7-7-7-7---7-7-7-5-5-5-5---5-5-5-0-0-0-0-0-0-0-0-|
g|-9-9-9-9---9-9-9-8-8-8-8---8-8-8-6-6-6-6---6-6-6-1-1-1-1-2-2-2-2-|
e|-0-0-0-0---0-0-0-0-0-0-0---0-0-0-0-0-0-0---0-0-0-0-0-0-0-0-0-0-0-|
a|-----------------------------------------------------------------|
E|-----------------------------------------------------------------|
   d u d u   u d u d u d u   u d u d u d u   u d u d u d u d u d u
       "You    left    me   there   beside   myself."

e|-0-0-0-0---0-0-0-0-0-0-0---0-0-0-0~------------------------------|
b|-9-9-9-9---9-9-9-7-7-7-7---7-7-7-5~------------------------------|
g|-9-9-9-9---9-9-9-8-8-8-8---8-8-8-6~------------------------------|
e|-0-0-0-0---0-0-0-0-0-0-0---0-0-0-0~------------------------------|
a|-----------------------------------------------------------------|
E|-----------------------------------------------------------------|
   d u d u   u d u d u d u   u d u d 
       "Left me with all the reasons I was wrong for you."


Well, there you have it. That's how to play this awesome
song. To make sure you don't break a string tuning up to e,
do it slowly, so the string gets used to the added pressure.
Have fun, and email me if you have any questions/comments.

email:strum_life_away@yahoo.com
Comments