Yellowcard - Finish Line Chords & Tabs

 

Finish Line Chords & Tabs

Yellowcard Chords & Tabs

Version: 1 Type: Bass Tab

Finish Line Bass Tab

Intro/Verse 1: 0:09 
G|---------------------------------------------------------------------------| 
D|---------------------------------------------------------------------------| 
A|---------------------3333-2222---------------------------------------------| 
E|-55555-1111111-33333-----------00000-1111111-333333333333------------------| 

Pre-Chorus 1: 0:36 
G|---------------------------------------------------------------------------| 
D|---------------------------------------------------------------------------| 
A|---------------------------------------------------------------------------| 
E|-1-11-1-11-1-11-1----------------------------------------------------------| 

Chorus 1: 0:45 
G|---------------------------------------------------------------------------| 
D|---------------------------------------------------------------------------| 
A|-3-2-------3-2----3-2------------------------------------------------------| 
E|-----0---------0------0-3--------------------------------------------------| 

Verse 2: 1:03 
G|---------------------------------------------------------------------------| 
D|---------------------------------------------------------------------------| 
A|------------------------333-222--------------------------------------------| 
E|-55-555-111-111-333-333---------000-000-111-111-333-333-333-333------------| 

Then: 1:13 
G|---------------------------------------------------------------------------| 
D|---------------------------------------------------------------------------| 
A|---------------------3333-2222---------------------------------------------| 
E|-55555-1111111-33333-----------00000-1111111-333333333333------------------| 
[ Tab from: http://www.guitartabs.cc/tabs/y/yellowcard/finish_line_btab.html ]
Pre-Chorus 2: 1:22 
G|---------------------------------------------------------------------------| 
D|---------------------------------------------------------------------------| 
A|---------------------------------------------------------------------------| 
E|-1-11-1--------------------------------------------------------------------| 

Chorus 2: 1:27 
G|---------------------------------------------------------------------------| 
D|---------------------------------------------------------------------------| 
A|-3-2----3-2---3-2-----3-2---3-2----3-2-------------------------------------| 
E|-----0------0-----0-3-----0-----0------0-3---------------------------------| 

"I'm not leaving you..." 2:03 
G|---------------------------------------------------------------------------| 
D|---------------------------------------------------------------------------| 
A|---------------------3333-2222---------------------------------------------| 
E|-55555-1111111-33333-----------00000-1111111-333333333333------------------| 

During guitar solo: 2:21 
G|---------------------------------------------------------------------------| 
D|---------------------------------------------------------------------------| 
A|-------3-2---------------3-2-----------------------------------------------| 
E|-5-1-3-----0-1-3---5-1-3-----0-1-3-----------------------------------------| 

Pre Chorus 2: 2:40 

Chorus 2: 2:44 

End: 3:12 
G|---------------------------------------------------------------------------| 
D|---------------------------------------------------------------------------| 
A|---------------------------------------------------------------------------| 
E|-1-11-1-11-(fades out)-----------------------------------------------------|