Yellowcard - Empty Apartment Chords & Tabs

 

Empty Apartment Chords & Tabs

Yellowcard Chords & Tabs

Version: 2 Type: Tab 0 ratings
1 star 2 stars 3 stars 4 stars 5 stars
comments

Empty Apartment Tab

TITLE : Empty Apartment
BAND  : Yellowcard
ALBUM : Ocean Avenue


This is how I play this song, yellowcard is a good band and this song rocks!! Note
that this sounds really good if you have an acustic guitar and some
percussion background  but this is not how they play it on the cd, even if I think the
chords are right, ENJOY !! BTW my first post here so be nice if you find mistakes =)


---------------------------
---------------------------




E||-----------------0--------------|-----------------0--------------|
B||------------1---------1---------|------------1---------1---------|
G||-------2-------------------2----|-------0-------------------0----|
D||--2-----------------------------|--2-----------------------------|
A||--------------------------------|--------------------------------|
E||--------------------------------|--------------------------------|


                                                                  
-----------------3--------------|-----------------0--------------|
------------0---------0---------|------------3---------3---------|
-------0-------------------0----|-------2-------------------2----|
--0-----------------------------|--0-----------------------------|
--------------------------------|--------------------------------|
--------------------------------|--------------------------------|


                                                                  
-----------------0--------------|-----------------0--------------|
------------1---------1---------|------------1---------1---------|
-------2-------------------2----|-------0-------------------0----|
--2-----------------------------|--2-----------------------------|
--------------------------------|--------------------------------|
--------------------------------|--------------------------------|


                                                                  
-----------------3--------------|-----------------0--------------|
------------0---------0---------|------------3---------3---------|
-------0-------------------0----|-------2-------------------2----|
--0-----------------------------|--0-----------------------------|
--------------------------------|--------------------------------|
--------------------------------|--------------------------------|


                                                                  
-----------------1--------------|-----------------1--------------|
------------1---------1---------|------------1---------1---------|
-------2-------------------2----|-------1-------------------1----|
--3-----------------------------|--3-----------------------------|
--------------------------------|--------------------------------|
--------------------------------|--------------------------------|


                                                                  
-----------------0--------------|-----------------0--------------|
------------1---------1---------|------------1---------1---------|
-------2-------------------2----|-------0-------------------0----|
--2-----------------------------|--2-----------------------------|
--------------------------------|--------------------------------|
--------------------------------|--------------------------------|


                                                                  
-----------------3--------------|-----------------0--------------|
------------0---------0---------|------------3---------3---------|
-------0-------------------0----|-------2-------------------2----|
--0-----------------------------|--0-----------------------------|
--------------------------------|--------------------------------|
--------------------------------|--------------------------------|


                                                                  
-----------------0--------------|-----------------0--------------|
------------1---------1---------|------------1---------1---------|
-------2-------------------2----|-------0-------------------0----|
--2-----------------------------|--2-----------------------------|
--------------------------------|--------------------------------|
--------------------------------|--------------------------------|


                                                                  
-----------------3--------------|-----------------0--------------|
------------0---------0---------|------------3---------3---------|
-------0-------------------0----|-------2-------------------2----|
--0-----------------------------|--0-----------------------------|
--------------------------------|--------------------------------|
--------------------------------|--------------------------------|


                                                                  
-----------------1--------------|-----------------1--------------|
------------1---------1---------|------------1---------1---------|
-------2-------------------2----|-------1-------------------1----|
--3-----------------------------|--3-----------------------------|
--------------------------------|--------------------------------|
--------------------------------|--------------------------------|


                                                                  
-----------------0--------------|-----------------0--------------|
------------1---------1---------|------------1---------1---------|
-------0-------------------0----|-------0-------------------0----|
--2-----------------------------|--0-----------------------------|
--------------------------------|--------------------------------|
--------------------------------|--------------------------------|


                                                                  
-----------------0--------------|-----------------1--------------|
------------1---------1---------|------------1---------1---------|
-------2-------------------2----|-------2-------------------2----|
--2-----------------------------|--3-----------------------------|
--------------------------------|--------------------------------|
--------------------------------|--------------------------------|


                                                                  
-----------------0--------------|-----------------0--------------|
------------1---------1---------|------------1---------1---------|
-------0-------------------0----|-------0-------------------0----|
--2-----------------------------|--0-----------------------------|
--------------------------------|--------------------------------|
--------------------------------|--------------------------------|


                                                                  
-----------------0--------------|-----------------1--------------|
------------1---------1---------|------------1---------1---------|
-------2-------------------2----|-------2-------------------2----|
--2-----------------------------|--3-----------------------------|
--------------------------------|--------------------------------|
--------------------------------|--------------------------------|


                                                                  
-----------------0--------------|-----------------0--------------|
------------1---------1---------|------------1---------1---------|
-------2-------------------2----|-------0-------------------0----|
--2-----------------------------|--2-----------------------------|
--------------------------------|--------------------------------|
--------------------------------|--------------------------------|


                                                                  
-----------------3--------------|-----------------0--------------|
------------0---------0---------|------------3---------3---------|
-------0-------------------0----|-------2-------------------2----|
--0-----------------------------|--0-----------------------------|
--------------------------------|--------------------------------|
--------------------------------|--------------------------------|


                                                                  
-----------------0--------------|-----------------0--------------|
------------1---------1---------|------------1---------1---------|
-------2-------------------2----|-------0-------------------0----|
--2-----------------------------|--2-----------------------------|
--------------------------------|--------------------------------|
--------------------------------|--------------------------------|


                                                                  
-----------------3--------------|-----------------0--------------|
------------0---------0---------|------------3---------3---------|
-------0-------------------0----|-------2-------------------2----|
--0-----------------------------|--0-----------------------------|
--------------------------------|--------------------------------|
--------------------------------|--------------------------------|


                                                                  
-----------------1--------------|-----------------1--------------|
------------1---------1---------|------------1---------1---------|
-------2-------------------2----|-------1-------------------1----|
--3-----------------------------|--3-----------------------------|
--------------------------------|--------------------------------|
--------------------------------|--------------------------------|

[ Tab from: http://www.guitartabs.cc/tabs/y/yellowcard/empty_apartment_tab_ver_2.html ]
                                                                  
-----------------0--------------|-----------------0--------------|
------------1---------1---------|------------1---------1---------|
-------0-------------------0----|-------0-------------------0----|
--2-----------------------------|--0-----------------------------|
--------------------------------|--------------------------------|
--------------------------------|--------------------------------|


                                                                  
-----------------0--------------|-----------------1--------------|
------------1---------1---------|------------1---------1---------|
-------2-------------------2----|-------2-------------------2----|
--2-----------------------------|--3-----------------------------|
--------------------------------|--------------------------------|
--------------------------------|--------------------------------|


                                                                  
-----------------0--------------|-----------------0--------------|
------------1---------1---------|------------1---------1---------|
-------0-------------------0----|-------0-------------------0----|
--2-----------------------------|--0-----------------------------|
--------------------------------|--------------------------------|
--------------------------------|--------------------------------|


                                                                  
-----------------0--------------|-----------------1--------------|
------------1---------1---------|------------1---------1---------|
-------2-------------------2----|-------2-------------------2----|
--2-----------------------------|--3-----------------------------|
--------------------------------|--------------------------------|
--------------------------------|--------------------------------|


                                                                  
-----------------0--------------|-----------------0--------------|
------------1---------1---------|------------1---------1---------|
-------0-------------------0----|-------0-------------------0----|
--2-----------------------------|--0-----------------------------|
--------------------------------|--------------------------------|
--------------------------------|--------------------------------|


                                                                  
-----------------0--------------|-----------------1--------------|
------------1---------1---------|------------1---------1---------|
-------2-------------------2----|-------2-------------------2----|
--2-----------------------------|--3-----------------------------|
--------------------------------|--------------------------------|
--------------------------------|--------------------------------|


                                                                  
-----------------0--------------|-----------------0--------------|
------------1---------1---------|------------1---------1---------|
-------0-------------------0----|-------0-------------------0----|
--2-----------------------------|--0-----------------------------|
--------------------------------|--------------------------------|
--------------------------------|--------------------------------|


                                                                  
-----------------0--------------|-----------------1--------------|
------------1---------1---------|------------1---------1---------|
-------2-------------------2----|-------2-------------------2----|
--2-----------------------------|--3-----------------------------|
--------------------------------|--------------------------------|
--------------------------------|--------------------------------|


                                                                  
-----------------0--------------|-----------------0--------------|
------------1---------1---------|------------1---------1---------|
-------0-------------------0----|-------0-------------------0----|
--2-----------------------------|--0-----------------------------|
--------------------------------|--------------------------------|
--------------------------------|--------------------------------|


                                                                  
-----------------0--------------|-----------------1--------------|
------------1---------1---------|------------1---------1---------|
-------2-------------------2----|-------2-------------------2----|
--2-----------------------------|--3-----------------------------|
--------------------------------|--------------------------------|
--------------------------------|--------------------------------|


                                                                  
-----------------0--------------|-----------------0--------------|
------------1---------1---------|------------1---------1---------|
-------0-------------------0----|-------0-------------------0----|
--2-----------------------------|--0-----------------------------|
--------------------------------|--------------------------------|
--------------------------------|--------------------------------|


                                                                  
-----------------0--------------|-----------------1--------------|
------------1---------1---------|------------1---------1---------|
-------2-------------------2----|-------2-------------------2----|
--2-----------------------------|--3-----------------------------|
--------------------------------|--------------------------------|
--------------------------------|--------------------------------|


                                                                  
-----------------0--------------|-----------------0--------------|
------------1---------1---------|------------1---------1---------|
-------0-------------------0----|-------0-------------------0----|
--2-----------------------------|--0-----------------------------|
--------------------------------|--------------------------------|
--------------------------------|--------------------------------|


                                                                  
-----------------0--------------|-----------------1--------------|
------------1---------1---------|------------1---------1---------|
-------2-------------------2----|-------2-------------------2----|
--2-----------------------------|--3-----------------------------|
--------------------------------|--------------------------------|
--------------------------------|--------------------------------|


                                                                  
-----------------0--------------|-----------------0--------------|
------------1---------1---------|------------1---------1---------|
-------0-------------------0----|-------0-------------------0----|
--2-----------------------------|--0-----------------------------|
--------------------------------|--------------------------------|
--------------------------------|--------------------------------|


                                                                  
-----------------0--------------|-----------------1--------------|
------------1---------1---------|------------1---------1---------|
-------2-------------------2----|-------2-------------------2----|
--2-----------------------------|--3-----------------------------|
--------------------------------|--------------------------------|
--------------------------------|--------------------------------|


                                                                  
-----------------0--------------|-----------------0--------------|
------------1---------1---------|------------1---------1---------|
-------0-------------------0----|-------0-------------------0----|
--2-----------------------------|--0-----------------------------|
--------------------------------|--------------------------------|
--------------------------------|--------------------------------|


                                                                  
-----------------0--------------|-----------------1--------------|
------------1---------1---------|------------1---------1---------|
-------2-------------------2----|-------2-------------------2----|
--2-----------------------------|--3-----------------------------|
--------------------------------|--------------------------------|
--------------------------------|--------------------------------|


                                                                  
-----------------0--------------|-----------------0--------------|
------------1---------1---------|------------1---------1---------|
-------0-------------------0----|-------0-------------------0----|
--2-----------------------------|--0-----------------------------|
--------------------------------|--------------------------------|
--------------------------------|--------------------------------|


                                                                           
-----------------0--------------|-----------------1--------------|--0----||
------------1---------1---------|------------1---------1---------|--1----||
-------2-------------------2----|-------2-------------------2----|--0----||
--2-----------------------------|--3-----------------------------|--2----||
--------------------------------|--------------------------------|--3----||
--------------------------------|--------------------------------|-------||
Comments