Yellowcard - Empty Apartment Chords & Tabs

 

Empty Apartment Chords & Tabs

Yellowcard Chords & Tabs

Version: 2 Type: Bass Tab 0 ratings
1 star 2 stars 3 stars 4 stars 5 stars
comments

Empty Apartment Bass Tab

   
Empty Apartment
Tabbed by: Sqweeky
G D A E

Intro "Answer no...."
G------|
D-3-2--|
A-----3|
E------|

Verse
G---------------------|x2
D------------5-5h7-5-4|
A-0~-2-3--------------|
E--------3-5----------|

Pre-Chorus
G-----------------------------|x1
D-----------------------------|
A-5-7-8-10-11-10-11-10-11-10-8|
E-----------------------------|
[ Tab from: http://www.guitartabs.cc/tabs/y/yellowcard/empty_apartment_btab_ver_2.html ]
Chorus                            Second Ending
G--------------------------------|--------------|
D--------------------------------|---3-5--------|
A-3333333-2222222-0000000--------|-------5-3----|
E-------------------------1111111|-1---------5-0|

Verse
G---------------------|x4
D------------5-5h7-5-4|
A-0~-2-3--------------|
E--------3-5----------|

Pre-Chorus
G-----------------------------|x1
D-----------------------------|
A-5-7-8-10-11-10-11-10-11-10-8|
E-----------------------------|

Chorus                            Second Ending
G--------------------------------|--------------|
D--------------------------------|---3-5--------|
A-3333333-2222222-0000000--------|-------5-3----|
E-------------------------1111111|-1---------5-0|

Repeat Chorus for rest of the song
Comments