Yellowcard - Empty Apartment Chords & Tabs

 

Empty Apartment Chords & Tabs

Yellowcard Chords & Tabs

Version: 1 Type: Bass Tab 0 ratings
1 star 2 stars 3 stars 4 stars 5 stars
comments

Empty Apartment Bass Tab

empty apartment
yellowcard
ocean avenue
tabbed by: vince a.

tuning: standard (eadg)
[ Tab from: http://www.guitartabs.cc/tabs/y/yellowcard/empty_apartment_btab.html ]
  intro     verses & solo    
G|------|-------------------|
D|-3p2--|--------5-5/7-5-4--|
A|----2-|-0-2-3-3---------5-|
E|------|-------------------|
      
     pre chorus                  chorus
G|---------0-1-0-1-0--|------------------------------|
D|-2/3-2-3----------3-|------------------------------|
A|--------------------|-333333-222222-000000---------|
E|--------------------|----------------------1111111-|
Comments