Yellowcard - Down On My Head Chords & Tabs

 

Down On My Head Chords & Tabs

Yellowcard Chords & Tabs

Version: 2 Type: Tab

Down On My Head Tab

Artist:        Yellowcard
Song Title:    Down On My Head
Album:         Lights And Sounds
Tabbed By:     Jose Jankunas (jankunas_rock@yahoo.com)



NOTES: there are 2 guitars in this song... this is the main one



Intro:
e|-------------------------------------------------------------------|
B|-------------------------------------------------------------------|
G|------------------------------------------7-7-7-7-6-6-6-6-6-6-6-6--|
D|--4-4-4-4-6-6-6-6-7-7-7-7-7-7-7-7-4-4-4-4-x-x-x-x-x-x-x-x-x-x-x-x--|
A|--x-x-x-x-x-x-x-x-x-x-x-x-x-x-x-x-x-x-x-x-5-5-5-5-4-4-4-4-4-4-4-4--|
E|--2-2-2-2-4-4-4-4-5-5-5-5-5-5-5-5-2-2-2-2--------------------------|

Verse:
e|-----------------------------------------------------------------
B|-----------------------------------------------------------------
G|------------------7-7-7-7-7-7-7-7-----------------7-7-7-7-7-7-7-7
D|--7-7-7-7-9-9-9-9-x-x-x-x-x-x-x-x-7-7-7-7-9-9-9-9-x-x-x-x-x-x-x-x
A|--x-x-x-x-x-x-x-x-5-5-5-5-5-5-5-5-x-x-x-x-x-x-x-x-5-5-5-5-5-5-5-5
E|--5-5-5-5-7-7-7-7-----------------5-5-5-5-7-7-7-7----------------

---------------------------------------------------------------------|
---------------------------------------------------------------------|
----------------------------------------7-7-7-7-6-6-6-6-6-6-6-6------|
4-4-4-4-6-6-6-6-7-7-7-7-7-7-7-7-4-4-4-4-x-x-x-x-x-x-x-x-x-x-x-x------| (x2)
x-x-x-x-x-x-x-x-x-x-x-x-x-x-x-x-x-x-x-x-5-5-5-5-4-4-4-4-4-4-4-4------|
2-2-2-2-4-4-4-4-5-5-5-5-5-5-5-5-2-2-2-2------------------------------|


PreChorus:
e|-------------------------------------------------------------------|
B|--9---------------1---------------7--------------7-----------------|
G|--x---------------x---------------x--------------x-----------------|
D|--6---------------7---------------4--------------4-----------------|
A|-------------------------------------------------------------------|
E|-------------------------------------------------------------------|
(let them all ring)
[ Tab from: http://www.guitartabs.cc/tabs/y/yellowcard/down_on_my_head_tab_ver_2.html ]
Chorus:
e|-------------------------------------------------------------------|
B|-------------------------------------------------------------------|
G|----------------------------------7-7-7-7-7-7-7-7------------------|
D|--4-4-4-4-4-4-4-4-7-7-7-7-7-7-7-7-7-7-7-7-7-7-7-7-7-7-7-7-6-6-6-6--| (X2)
A|--4-4-4-4-4-4-4-4-7-7-7-7-7-7-7-7-5-5-5-5-5-5-5-5-7-7-7-7-7-7-7-7--|
E|--2-2-2-2-2-2-2-2-5-5-5-5-5-5-5-5-----------------5-5-5-5-4-4-4-4--|

-Verse (the first part are the first 3 chords from the verse)

-PreChorus

-Chorus (X4)

Bridge:
e|-----------------------------------------|
B|-----------------------------------------|
G|-----------------------------------------|
D|--4444-4447777-7779999-99-7--9--7--6--7--|
A|--4444-4447777-7779999-99-7--9--7--6--7--|
E|--2222-2225555-5557777-77-5--7--5--4--5--|

(voices start)
e|-------------------------------------------------------------------|
B|-------------------------------------------------------------------|
G|--11111111111111119-9-9-9-9-9-9-9-4-4-4-4-4-4-4-4-4-4-4-4-4-4-4-4--|
D|--11111111111111119-9-9-9-9-9-9-9-4-4-4-4-4-4-4-4-4-4-4-4-4-4-4-4--|
A|--9-9-9-9-9-9-9-9-7-7-7-7-7-7-7-7-2-2-2-2-2-2-2-2-2-2-2-2-2-2-2-2--|
E|------------------------------------------------.------------------|
(does 1s are 11s)

the final chord: e|-------------------------------------|
                 B|-------------------------------------|
                 G|--7-7-7-7-7-7-7-7-7-7-7-7-7-7-7-7-7--|
                 D|--7-7-7-7-7-7-7-7-7-7-7-7-7-7-7-7-7--|
                 A|--5-5-5-5-5-5-5-5-5-5-5-5-5-5-5-5-5--|
                 E|-------------------------------------|

(GOES WHERE THE "." IS)

e|--------------------------------------------------------------|
B|--------------------------------------------------------------|
G|------------------7-7-7-7-7-7-7-7-----------------7--6--4--6--|
D|--7-7-7-7-9-9-9-9-x-x-x-x-x-x-x-x-7-7-7-7-9-9-9-9-x--x--x--x--|
A|--x-x-x-x-x-x-x-x-5-5-5-5-5-5-5-5-x-x-x-x-x-x-x-x-5--4--2--4--|
E|--5-5-5-5-7-7-7-7-----------------5-5-5-5-7-7-7-7-------------|

-Chorus (x2)

Final Chorus:
e|-------------------------------------------------------------------|
B|-------------------------------------------------------------------|
G|----------------------------------7-7-6-6-4-4----------------------|
D|--4-4-4-4-4-4-4-4-7-7-7-7-7-7-7-7-x-x-x-x-x-x-7-7-6-6-6-6-6-6-6-6--| (x2)
A|--4-4-4-4-4-4-4-4-7-7-7-7-7-7-7-7-5-5-4-4-2-2-x-x-x-x-x-x-x-x-x-x--|
E|--2-2-2-2-2-2-2-2-5-5-5-5-5-5-5-5-------------5-5-4-4-4-4-4-4-4-4--|