Yellowcard - Breathing Chords & Tabs

 

Breathing Chords & Tabs

Yellowcard Chords & Tabs

Version: 3 Type: Tab 0 ratings
1 star 2 stars 3 stars 4 stars 5 stars
comments

Breathing Tab

Tuning: Regular
Intro

Guitar 1
-----------------------------------|
-----------------------------------|
-----------------------------------|
-----------------------------------|
-----------------------------------|
-0-0-0-8-8-8-2-2-2-3-3-3-3-3-3-2-2-|
                                       both lines 2 times
----------------------------------|
----------------------------------|
----------------------------------|
----------------------------------|
----------------------------------|
-0-0-0-8-8-8-2-2-2-3-3-3----------|

Guitar 2
-14-15-12-14-15-12----------------|
-------------------12-------------|
----------------------------------|
----------------------------------|      x8
----------------------------------|
----------------------------------|
----------------------------------|

Guitar 1
----------------------------------|
----------------7-8-10-8-7--------|
--7-9-9-7-7-9-9------------7-7-9--|
----------------------------------|
----------------------------------|
----------------------------------|

----------------------------------|
----------------------------------|
-9-7-0----------------------------|
----------------------------------|
----------------------------------|
----------------------------------|
[ Tab from: http://www.guitartabs.cc/tabs/y/yellowcard/breathing_tab_ver_3.html ]
Verse x2 (find out the beat)
----------------------------------|
----------------------------------|
----------------------------------|
-5--5--5--5--7--7--7--7--9--9--9--|
-3--3--3--3--5--5--5--5--7--7--7--|
----------------------------------|

----------------------------------|
----------------------------------|
----------------------------------|
-9--9--12--4--5--5--5--5--5--5--5-|
-7--7--10--2--3--3--3--3--3--3--3-|
----------------------------------|

----------------------------------|
----------------------------------|
----------------------------------|
-4-4-4-4-4-4-4-2-2-2-2-2-2-2------|
-2-2-2-2-2-2-2-0-0-0-0-0-0-0------|
----------------------------------|

Chorus x2 (2nd chorus 4 times)
----------------------------------|
----------------------------------|
----------------------------------|
-5-5-5-5-5-5-5-5-5-5-5-5-5-5-5-5--|
-3-3-3-3-3-3-3-3-3-3-3-3-3-3-3-3--|
----------------------------------|

----------------------------------|
----------------------------------|
----------------------------------|
-7-7-7-7-7-7-7-7-7-7-7-7-7-7-7-7--|
-3-3-3-3-3-3-3-3-3-3-3-3-3-3-3-3--|
----------------------------------|

----------------------------------|
----------------------------------|
----------------------------------|
-9-9-9-9---9-9-9-9----------------|
-7-7-7-7-9-7-7-7-7-9--------------|
---------7---------7--------------|

----------------------------------|
----------------7-8-10-8-7--------|
--7-9-9-7-7-9-9------------7-7-9--|
----------------------------------|
----------------------------------|
----------------------------------|

Order
intro
verse
chorus
verse
Chorus
bridge(play chorus)
CHORUS
Comments