Yeah Yeah Yeahs - Tick Chords & Tabs

 

Tick Chords & Tabs

Yeah Yeah Yeahs Chords & Tabs

Version: 1 Type: Tab 0 ratings
1 star 2 stars 3 stars 4 stars 5 stars
comments

Tick Tab

TICK By the yeah yeah yeahs

intro
e-------------|
b-------------|
g-------------|    3 1/2X then....
d--777/99-----|
a--777/99-----|
E--555/77-----|
(you make me...)

bridge
e--22--|
b------|    (fast picking)
g------|
(Tick...time you take it...)

chorus
e---------------------------|
b---------------------------|
g---777/9-------------------|
d---777/9--777/9------------|    3X
a---555/7--777/9------------|
E----------555/7------------|
(You look so good.......)

  [bridge](slightly longer than the first)
[ Tab from: http://www.guitartabs.cc/tabs/y/yeah_yeah_yeahs/tick_tab.html ]
interlude
e-------------------------------|
b-------------------------------|
g---777/99----------------------|
d---777/99----777\55------------| 3X
a---555/77----777\55------------|
E-------------555\33------------|


[intro]4x then...

E---7\(slide to....)----

palm mute slapback (10x's or so)
(You make me want to lose...)
(w/ a few slides)

solo

e----------------------------------|
b------------14h1214h1214h1214h12--|
g----------------------------------|  4X
d---77-----------------------------|
a---77-----------------------------|
E---55-----------------------------|

[palm mute slapback]

[chorus]

[bridge](freakin long bridge)
(Tick.......time you take it..time you take it)

E---7/-------
   (out)

Im pretty sure its all right
SELENA aka The Anasazi Soldier
Comments