Yeah Yeah Yeahs - Pin Chords & Tabs

 

Pin Chords & Tabs

Yeah Yeah Yeahs Chords & Tabs

Version: 5 Type: Tab 0 ratings
1 star 2 stars 3 stars 4 stars 5 stars
comments

Pin Tab

i found out today, i think its ok but not really how it goes.

E|---------------------------------------------|
a|---------------------------------------------|
d|---------------------------------------------|
g|----------------------------2-2-2-2-2--------|
b|-14-14-14-14-14-14-14-9-9-9-----------3-3-2--|
e|---------------------------------------------|
[ Tab from: http://www.guitartabs.cc/tabs/y/yeah_yeah_yeahs/pin_tab_ver_5.html ]
E|-------------------------------------------------------------|
a|-------------------------------------------------------------|
d|-------------------------------------------------------------|
g|----------------------------2-2-2-2-2-2-2-2------------------|
b|-14-14-14-14-14-14-14-9-9-9-----------------5-5-5-5-5-5-5-5--|
e|-------------------------------------------------------------|
Comments