Yeah Yeah Yeahs - Pin Chords & Tabs

 

Pin Chords & Tabs

Yeah Yeah Yeahs Chords & Tabs

Version: 4 Type: Tab 0 ratings
1 star 2 stars 3 stars 4 stars 5 stars
comments

Pin Tab





Intro/Ending

|----------------|
|-12-12-12-12-12-| (x8)
|----------------|
|-12-12-12-12-12-|  
|----------------|  
|----------------|

Verse

|----------------------------------------|
|-12-12-12-12-12\7-7-7-7-----------------|
|-----------------------/8-8-8-8/5-5-5-5-|
|-12-12-12-12-12\7-7-7-7/8-8-8-8/5-5-5-5-|
|----------------------------------------|
|----------------------------------------|


|--------------------------------------------|
|-12-12-12-12-12\7-7-7-7---------------------|
|-----------------------/8-8-8-8/12-12-12-12-| To The Start Of The Verse
|-12-12-12-12-12\7-7-7-7/8-8-8-8/12-12-12-12-|     (x4)
|--------------------------------------------|
|--------------------------------------------|

Chorus
[ Tab from: http://www.guitartabs.cc/tabs/y/yeah_yeah_yeahs/pin_tab_ver_4.html ]
|---------------------------------------------|-------------------------|
|---------------------------------------------|-------------------------|
|---------------------------------------------|-------------------------|
|---------------------------------------------|-------------------------|
|-12-14--12-14--12-14--12-14--5-5-5-5-5-5-5-5-|-5-5-5-5-12-12-12-12-12\-|
|-12-14--12-14--12-14--12-14--5-5-5-5-5-5-5-5-|-5-5-5-5-12-12-12-12-12\-|
 (Bom bom bom bom bom bom...  dunuh dunuh....)   (End of chorus)


Little bit after first chorus

|---------------------------------------|
|-----------------------------17-17-17\-|
|---------------------------------------|
|-2-2-2-2-2-2-2-2-12-12-12-12-----------|
|---------------------------------------|
|---------------------------------------|
Comments