Yeah Yeah Yeahs - Pin Chords & Tabs

 

Pin Chords & Tabs

Yeah Yeah Yeahs Chords & Tabs

Version: 2 Type: Tab 0 ratings
1 star 2 stars 3 stars 4 stars 5 stars
comments

Pin Tab

YEAH YEAH YEAHS
PIN
FEVER TO TELL
Tabbed by Dan Steadman
Standard tuning

E|---------------------------------------------|
a|---------------------------------------------|
d|-12-12-12-12-12-12-12-7-7-7------------------|
g|-x--x--x--x--x--x--x--x-x-x-9-9-9-9-9-5-5-5--|
b|-12-12-12-12-12-12-12-7-7-7-9-9-9-9-9-5-5-5--|
e|---------------------------------------------|
[ Tab from: http://www.guitartabs.cc/tabs/y/yeah_yeah_yeahs/pin_tab_ver_2.html ]
E|------------------------------------------------|
a|------------------------------------------------|
d|-12-12-12-12-12-12-12-7-7-7---------------------|
g|-x--x--x--x--x--x--x--x-x-x-9-9-9-9-9-12-12-12--|
b|-12-12-12-12-12-12-12-7-7-7-9-9-9-9-9-12-12-12--|
e|------------------------------------------------|

E|-----------------------------------------|
a|-----------------------------------------|
d|-----------------------------------------|
g|-14-14-14-14-14-14-14--------------------|
b|-14-14-14-14-14-14-14-5-5--5-5--5-5--5-5-|
e|-12-12-12-12-12-12-12-5-5--5-5--5-5--5-5-|

E|---------------------------------------|
a|-2-2-2-2-2-2-2-14-14-14-14-------------|
d|---------------------------17-17-17-17-|
g|---------------------------------------|
b|---------------------------------------|
e|---------------------------------------|

Thats the whole thing.
-Dan
Comments