Yeah Yeah Yeahs - Pin Chords & Tabs

 

Pin Chords & Tabs

Yeah Yeah Yeahs Chords & Tabs

Version: 1 Type: Tab 0 ratings
1 star 2 stars 3 stars 4 stars 5 stars
comments

Pin Tab

   
Yeah yeah yeahs
From New York, USA


Pin
from the album Fever To Tell

Tuning is Drop D: DGCFAd

For the beginning of this song play this chord 16 times

d|----
A|-12-
F|----
C|-12-
G|----
D|----

At the end of the song this chord is played about 30 times

Verse

|----------------------------------------|
|-12-12-12-12-12\7-7-7-7\5-5-5-5-5\1-1-0-|
|-----------------------\4-4-4-4-4\0-0-0-|
|-12-12-12-12-12\7-7-7-7-----------------|
|----------------------------------------|
|----------------------------------------|

|------------------------------------------|
|-12-12-12-12-12\7-7-7-7\5-5-5-5-5\8-8-8-8-|
|-----------------------\4-4-4-4-4\7-7-7-7-|
|-12-12-12-12-12\7-7-7-7-------------------|
|------------------------------------------|
|------------------------------------------|
[ Tab from: http://www.guitartabs.cc/tabs/y/yeah_yeah_yeahs/pin_tab.html ]
Chorus

|---------------------------------------------|-------------------------|
|---------------------------------------------|-------------------------|
|---------------------------------------------|-------------------------|
|---------------------------------------------|-------------------------|
|-12-14--12-14--12-14--12-14--5-5-5-5-5-5-5-5-|-5-5-5-5-12-12-12-12-12\-|
|-12-14--12-14--12-14--12-14--5-5-5-5-5-5-5-5-|-5-5-5-5-12-12-12-12-12\-|
  (Bom Bom bom bom bom...    duduh duduh...)

kinda guitar solo after 1st verse

|----------------------------------------|
|-----------------------------17-17-17\--|
|----------------------------------------|
|-2-2-2-2-2-2-2-2-12-12-12-12------------|
|----------------------------------------|
|----------------------------------------|
This is my first tab so i hope others find it useful
Comments