Yeah Yeah Yeahs - Black Tongue Chords & Tabs

 

Black Tongue Chords & Tabs

Yeah Yeah Yeahs Chords & Tabs

Version: 1 Type: Tab 0 ratings
1 star 2 stars 3 stars 4 stars 5 stars
comments

Black Tongue Tab

Song: Black Tongue
Artist: Yeah Yeah Yeahs
Album: Fever To Tell
Tabbed by: Lauren


Just a quick note: For all of the chords (and most of the 
single notes) your basically strumming as quickly as you can.  

 - - - - -

Intro: 4x

G#maj Bar

E: -4-4-4-4-4-4-4-4--------
B: -4-4-4-4-4-4-4-4--------
G: -5-5-5-5-5-5-5-5--------
D: -6-6-6-6-6-6-6-6--------
A: -6-6-6-6-6-6-6-6--------
E: -4-4-4-4-4-4-4-4--------

 - - - - -

1st Verse: 3x

G#maj Bar

E: -4-4-4-4-4-4-4-4--------
B: -4-4-4-4-4-4-4-4--------
G: -5-5-5-5-5-5-5-5--------
D: -6-6-6-6-6-6-6-6--------
A: -6-6-6-6-6-6-6-6--------
E: -4-4-4-4-4-4-4-4--------

F#maj Bar

E: -2-2-2-2-2-2-2-2--------
B: -2-2-2-2-2-2-2-2--------
G: -3-3-3-3-3-3-3-3--------
D: -4-4-4-4-4-4-4-4--------
A: -4-4-4-4-4-4-4-4--------
E: -2-2-2-2-2-2-2-2--------

 - - - - - 

Pre-Chorus (karen's uh-huhs & squeels) 2x

G#maj

E: -4-4-4-4-4-4-4-4--------
B: -4-4-4-4-4-4-4-4--------
G: -5-5-5-5-5-5-5-5--------
D: -6-6-6-6-6-6-6-6--------
A: -6-6-6-6-6-6-6-6--------
E: -4-4-4-4-4-4-4-4--------

F#maj

E: -2-2-2-2-2-2-2-2--------
B: -2-2-2-2-2-2-2-2--------
G: -3-3-3-3-3-3-3-3--------
D: -4-4-4-4-4-4-4-4--------
A: -4-4-4-4-4-4-4-4--------
E: -2-2-2-2-2-2-2-2--------

 - - - - -

Inbetween

[ Tab from: http://www.guitartabs.cc/tabs/y/yeah_yeah_yeahs/black_tongue_tab.html ]
E: -4-4-4-4-4-4-4-4---7b----4-4-4-4-4-4-4-4
B: -4-4-4-4-4-4-4-4---------4-4-4-4-4-4-4-4
G: -5-5-5-5-5-5-5-5---------5-5-5-5-5-5-5-5
D: -6-6-6-6-6-6-6-6---------6-6-6-6-6-6-6-6
A: -6-6-6-6-6-6-6-6---------6-6-6-6-6-6-6-6
E: -4-4-4-4-4-4-4-4---------4-4-4-4-4-4-4-4

 - - - - -

Verse (with some bends added in)


E: -4-4-4-4-4-4-4-4----2-2-2-2-2-2-2-2--7b--
B: -4-4-4-4-4-4-4-4----2-2-2-2-2-2-2-2------
G: -5-5-5-5-5-5-5-5----3-3-3-3-3-3-3-3------
D: -6-6-6-6-6-6-6-6----4-4-4-4-4-4-4-4------
A: -6-6-6-6-6-6-6-6----4-4-4-4-4-4-4-4------
E: -4-4-4-4-4-4-4-4----2-2-2-2-2-2-2-2------


E: -2-2-2-2-2-2-2-2--------
B: -2-2-2-2-2-2-2-2---3b---
G: -3-3-3-3-3-3-3-3--------
D: -4-4-4-4-4-4-4-4--------
A: -4-4-4-4-4-4-4-4--------
E: -2-2-2-2-2-2-2-2--------


E: -4-4-4-4-4-4-4-4----2-2-2-2-2-2-2-2--
B: -4-4-4-4-4-4-4-4----2-2-2-2-2-2-2-2--
G: -5-5-5-5-5-5-5-5----3-3-3-3-3-3-3-3--
D: -6-6-6-6-6-6-6-6----4-4-4-4-4-4-4-4--
A: -6-6-6-6-6-6-6-6----4-4-4-4-4-4-4-4--
E: -4-4-4-4-4-4-4-4----2-2-2-2-2-2-2-2--

 - - - - -

Pre-chorus

 - - - - - 

Chorus: 3x

E:---------------------------------
B:---------------------------------
G:---------------------------------
D:---------------------------------
A:---------------------------------
E:-11-11-11-11--9-9-9-9--4-4-4-4---

 - - - - -

Another Inbetween: 2x (but without the 2nd 3b)

E: -4-4-4-4-4-4-4-4--7b--4-4-4-4-4-4-4-4-----
B: -4-4-4-4-4-4-4-4------4-4-4-4-4-4-4-4--3b-
G: -5-5-5-5-5-5-5-5------5-5-5-5-5-5-5-5-----
D: -6-6-6-6-6-6-6-6------6-6-6-6-6-6-6-6-----
A: -6-6-6-6-6-6-6-6------6-6-6-6-6-6-6-6-----
E: -4-4-4-4-4-4-4-4------4-4-4-4-4-4-4-4-----

 - - - - - 

Verse (with only 7b bends)

 - - - - - 

Pre-chrous

 - - - - -

Chorus

 - - - - -

Enjoy!
Great song, even better live.
Comments