Yardbirds - Train Kept A Rollin Chords & Tabs

 

Train Kept A Rollin Chords & Tabs

Yardbirds Chords & Tabs

Version: 3 Type: Tab 0 ratings
1 star 2 stars 3 stars 4 stars 5 stars
comments

Train Kept A Rollin Tab

   
#----------------------------------PLEASE NOTE---------------------------------#
#This file is the author's own work and represents their interpretation of the #
#song. You may only use this file for private study, scholarship, or research. #
#------------------------------------------------------------------------------#

Yardbirds - Train Kept A-Rollin'

intro
E
----------------------------
-15----15-------------------
-14b16-14b16-14b16r14p12----
-------------------------14-
----------------------------
----------------------------

verses
 E                                             A
---------------------------------------------------------------------
---------------------------------------------------------------------
---------------------------------------------------------------------
---------------------------------------------------------------------
-----------------------------------------------3-0-0-3-0-0-0-3-3-0-3-
-3-0-0-3-0-0-0-3-3-0-3--3-0-0-3-0-0-0-3-3-0-3------------------------

E                       B7          A7       E
-------------------------------------------------------------------
-------------------------------------------------------------------
-------------------------------------------------------------------
-------------------------------------------------------------------
------------------------0--0--0--2--0------------------------------
-3-0-0-3-0-0-0-3-3-0-3-----------------3--2--3-0-0-3-0-0-0-3-3-0-3-




harmonica solo
E     A     E     B7  A7    E 
[ Tab from: http://www.guitartabs.cc/tabs/y/yardbirds/train_kept_a_rollin_tab_ver_3.html ]
solo 1
----------------------------------------------------------
-------------------------------------15-------------------
-14b16-12h14p12----14b--------12-14b----12h14p12----12----
----------------14-----14--14--------------------14----14-
----------------------------------------------------------
----------------------------------------------------------

--------------12-------12-------------------------15b17-12----------------
-12-15b17--12----15b17----15-12----------------------------15-12----------
--------------------------------14-12----------12----------------12-------
--------------------------------------14-12-14----------------------12-14-
--------------------------------------------------------------------------
--------------------------------------------------------------------------

-------------------------------------------------------------12-------
-15----------------------------------------------------12-15----15b17-
----12----12-14b16r14p12-14-12-14-12----------12-14b16----------------
-------14----------------------------14-12-14-------------------------
----------------------------------------------------------------------
----------------------------------------------------------------------



interlude
------------------------------------------------------------
------------------------------------------------------------
------------------------------------------------------------
------------------------------------------------------------
-2----------------------------------------------------------
-0----1-2-3---1-2-3---1-2-3---1-2-3---1-2-3---1-2-3---1-2-3-

solo
(E minor pentatonic)

outro
E7
Comments