Yardbirds - The Train Kept A-rollin' Chords & Tabs

 

The Train Kept A-rollin' Chords & Tabs

Yardbirds Chords & Tabs

Version: 1 Type: Tab 1 rating
1 star 2 stars 3 stars 4 stars 5 stars
comments

The Train Kept A-rollin' Tab

   
the Yardbirds-The Train Kept A-Rollin'



 intro
E-----------------------------------------------
B--15----15-------------------------------------
G--14b16-14b16-14b16r14p12----------------------
D-------------------------14--------------------
A-----------------------------------------------
e-----------------------------------------------

 verse
 p.m........................................................
E-----------------------------------------------------------
B---3------------3-3-------------3------------3-3-----------
G---4---1-1-1-1--4-4---1-1-1-1---4---1-1-1-1--4-4---1-1-1-1-
D---5---2-2-2-2--5-5---2-2-2-2---5---2-2-2-2--5-5---2-2-2-2-
A---5---2-2-2-2--5-5---2-2-2-2---5---2-2-2-2--5-5---2-2-2-2-
e---3---0-0-0-0--3-3---0-0-0-0---3---0-0-0-0--3-3---0-0-0-0-
    +   d u d u  + +   d u d u   +   d u d u  + +   d u d u  
............................................................

E-------x-x-x-x--------x-x-x-x------------------------------
B---1---5-5-5-5--1-1---5-5-5-5---3------------3-3-----------
G---0---6-6-6-6--0-0---6-6-6-6---4---1-1-1-1--4-4---1-1-1-1-
D---2---7-7-7-7--2-2---7-7-7-7---5---2-2-2-2--5-5---2-2-2-2-
A---3---7-7-7-7--3-3---7-7-7-7---5---2-2-2-2--5-5---2-2-2-2-
e---3---5-5-5-5--3-3---5-5-5-5---3---0-0-0-0--3-3---0-0-0-0-
        + + + +        + + + +   +   d u d u  + +   d u d u 
        d u d u        d u d u  
   
this part has no p.m
E-x-x-x-0--x-----
B-5-5-5-6--5-3-2-
G-6-6-6-7--6-4-3-
D-7-7-7-8--7-5-4-
A-7-7-7-8--7-5-4-
e-5-5-5-6--5-3-2-

[ Tab from: http://www.guitartabs.cc/tabs/y/yardbirds/the_train_kept_a_rollin_tab.html ]
 solo
E-------------------------------------------------------------------
B----------------------------------------------15-------------------
G-14b(16)--12h14p12----14b----14b-------12-14b----12b14p12----12----
D-------------------14-----14-----14-14--------------------14----14-
A-------------------------------------------------------------------
e-------------------------------------------------------------------

E---------------12----------12------------------------15b(17)-12-----------------
B-12--15b(17)-12----15b(17)----15-12-----------------------------15-12-----------
G------------------------------------14-12---------12------------------12--------
D------------------------------------------14-12-14-----------------------12-14--
A--------------------------------------------------------------------------------
e-------------------------------------------------------------------------------- 

E--------------------------------------------------------------12--------
B-15------------------------------------------------------12-15---15b(17-
G----12----12--14b(16)r14p12-14-12-14-12--------12-14b(16)---------------
D-------14------------------------------14-12-14-------------------------
A------------------------------------------------------------------------
e------------------------------------------------------------------------

 interlude
E--------------------------------------------
B--------------------------------------------
G--------------------------------------------
D--------------------------------------------
A-2------------------------------------------
e-0----1-2-3---1-2-3---1-2-3---1-2-3---1-2-3-
 played behind solo (with second guitar)




+=with thumb
d=down stroke
u=up stroke
p.m=palm mute
b(#)=bend to that note
h=hammer
p=pull off



well thats it, i think its 100 percent right i hope u like it,if u listen to the song and play you
should get the rythem right well,please rate it when your done thanks

ledhendrix785




Comments