Yardbirds - Still Im Sad Chords & Tabs

 

Still Im Sad Chords & Tabs

Yardbirds Chords & Tabs

Version: 2 Type: Tab 0 ratings
1 star 2 stars 3 stars 4 stars 5 stars
comments

Still Im Sad Tab

   
verse riff
E:-0------|
B:-0------|
G:-0------|
D:-2------|
A:-2------|
E:-0--x-x-|

chant riff:
    A
E:----------------------------|
B:----------------------------|
G:--------------2-------------|
D:--2--4--5-4-5----5-4--2-0-2-|
A:----------------------------|
E:----------------------------|
[ Tab from: http://www.guitartabs.cc/tabs/y/yardbirds/still_im_sad_tab_ver_2.html ]
     B
E:------------------------------   -----------   --------------|
B:------------------------------   -----------   --------------|
G:------------------------------   -----------   -4------------|
D:--5--7--8-7-8--8/10--8-7--5---   -0-5-4-2-0-   ----7---5---4-|
A:------------------------------   -----------   --------------|
E:------------------------------   -----------   --------------|

you can peice it together from this
after the verse the riff is played with harmonics somehow...
Comments