Yardbirds - Heart Full Of Soul Chords & Tabs

 

Heart Full Of Soul Chords & Tabs

Yardbirds Chords & Tabs

Version: 1 Type: Bass Tab 0 ratings
1 star 2 stars 3 stars 4 stars 5 stars
comments

Heart Full Of Soul Bass Tab

Yardbirds
Heart Full of Soul
Bass Tab


Notes: The chorus is actually 7 (or 3 1/2) measures


Intro p1
|-------------------------------------------------------------|
|-0-----------------------------------------------------------|
|-------------------------------------------------------------|
|-------------------------------------------------------------|

Intro p2
|-------------------------------------------------------------|
|-0-----0-----2---0-----0-----2-------------------------------|
|---------3---------------3-----------------------------------|
|-------------------------------------------------------------|
  1   +   2   +   3   +   4   +

Verse p1
|-----------------------------------------------------------------|
|-0-----0-----0-----------------------------------0-----0-----0---|
|---------3-----------------------1-----1-----1-----------3-------|
|-----------------3-----3-1---3-----------1-----------------------|
  1   +   2   +   3   +   4   +   1   +   2   +   3   +   4   +

[ Tab from: http://www.guitartabs.cc/tabs/y/yardbirds/heart_full_of_soul_btab.html ]
Verse p2
|-----------------------------------------------------------------|
|-0-----0-----0-----------------------------------0---0-----------|
|---------3-----------------------1-----1-----1-------------------|
|-----------------3-----3-1---3-----------1-----------------------|
  1   +   2   +   3   +   4   +   1   +   2   +   3   +   4   +

Chorus p1
|---------------------------------------------------------------|
|-0---0---0---0-------------------0-0-0-0-0-0-0-----------------|
|-------------------------------------------------1---1---------|
|-----------------1---1---3---3---------------------------1---1-|
  1   +   2   +   3   +   4   +   1   +   2   +   3   +   4   +

Chorus p2
|--------------------------------------------------|
|-0-0-0-0-0-0-0------------------------------------|
|-----------------0--------------------------------|
|---------------------------------3----------------|
  1   +   2   +   3   +   4   +   1   +   2   +

Order

a "verse" is verse p1 x3 and then verse p2 x1
a "bridge" is the intro p1, then intro p2
a "chorus" is the chorus p1, then chorus p2

Intro p1 x2
Intro p2 x2
Verse 1
Chorus
Bridge
Verse p1	w/Solo
Verse p2	w/Solo
Chorus
Bridge
verse 2
Chorus
Intro p1 x3
End on Dm


Comments, praise, jeering, etc. direct to quietriot@gmail.com
Comments