Yardbirds - Good Morning Little Schoolgirl Chords & Tabs

 

Good Morning Little Schoolgirl Chords & Tabs

Yardbirds Chords & Tabs

Version: 4 Type: Tab 0 ratings
1 star 2 stars 3 stars 4 stars 5 stars
comments

Good Morning Little Schoolgirl Tab

   
<h5>

good morning little schoolgirl

intro
(harm)
 2x

 2x
-----------------------------|
-----------------------------|
-16-14-12--------------12----|
----------14 12--14-14----14-|
-----------------------------|
-----------------------------|

-------------------------------------|
-------------------------------------|
-16-14-12-14b15-14b15-14b15-14b15r14-|
-------------------------------------|
-------------------------------------|
-------------------------------------|

---------------------------------------------|
---------------------------------------------|
-16-14-12--------------12--------12-16-12----|
----------12-12--14-14----14-14-----------12-|
---------------------------------------------|
---------------------------------------------|

verses
   E                         A
(1)good morning little schoolgirl
(2)Lets dance   little schoolgirl
(4)good morning little schoolgirl
E                         A
good morning little schoolgirl
Lets dance   little schoolgirl
good morning little schoolgirl

can i go home with
wont you let me take you to the hop hop
can i go home with

wont you let me go home with you
have a party at the soda shop
wont you let me go home with you

B                 A
so i can hug hug squeeze squeeze
so we can do the twist do the stroll
tell your mama and your papa that i love you
B                 A
if you let me I can tease you baby
to the music of the rock and roll
tell your sisters and your brother that i love you
B       A
hey hey hey hey hey
B       A            E
hey hey hey hey yeah yeah
[ Tab from: http://www.guitartabs.cc/tabs/y/yardbirds/good_morning_little_schoolgirl_tab_ver_4.html ]
solo
---------------------------------------------------------------------------------------|
---------------------------------------------------------------------------------------|
-14b16-b16-b16-b16-16b-14b16-b16-b16-b16-b16-b16-b16-14b16-b16-b16-b16-b17-b17-b17-b17-|
---------------------------------------------------------------------------------------|
---------------------------------------------------------------------------------------|
---------------------------------------------------------------------------------------|

----------------------------------------------------------------------|
----------------------------------------------------------------------|
-14b16-b16-b16-b16-14b16-b16-b16-b16-16r14-14-12-------12-14b15r14p12-|
-------------------------------------------------14-12----------------|
----------------------------------------------------------------------|
----------------------------------------------------------------------|

-------------------------------------------12----------------|
-------------------------------------------------------------|
14b15r14p12----12----------12-14b15----12s----12h14p12-------|
------------14----14-12-14----------14-----------------14-12-|
-------------------------------------------------------------|
-------------------------------------------------------------|

----------------------------------------------12----------------|
-------12-15b17-------------------------------------------------|
-12b14----------16-16s14-12----------12-14b15----12h14p12-------|
----------------------------14-12-14----------------------14-12-|
----------------------------------------------------------------|
----------------------------------------------------------------|


Comments