Yano - Senti Chords & Tabs

 

Senti Chords & Tabs

Yano Chords & Tabs

Version: 1 Type: Chords 0 ratings
1 star 2 stars 3 stars 4 stars 5 stars
comments

Senti Chords

   
-----------------------------------------------------------------------------
			     Yano - Senti
-----------------------------------------------------------------------------

Tabbed by: George Uson
Email:george_uson@yahoo.com

Tuning: Standard


 Yano
 (D. Abay, E. Gancio) 

Intro: A9-D9/A-; (4x)

Chord pattern A9 D9/A
 
 Niyaya mo akong mamasyal sa zoo
 Ang sabi mo kase kailangan mo ng kasama
 Sumama naman ako kase crush kita noon pa
 Kunsabagay, gusto ko na ring magka... alam mo na.

Chord pattern A9 D9/A
 
 Pagkatapos kumain tayo sa labas
 Kwinento mo ang iyong nakaraan
 Iniwanan ka pala ng yong boypren
 Kasi ayaw n'ya ang bago mong buhok.

Chorus
A             D9      A-D9
 Mahal ka ba n'ya talaga
A             D9      A-D9
 Mahal ka ba n'ya talaga?

Repeat Filler

  Chord pattern A D9
 
Solo part
[ Tab from: http://www.guitartabs.cc/tabs/y/yano/senti_crd.html ]
e|-------------------------------------------------------------------|
B|-----2------2-3-----2-3-3-5--5-3h2-3-5-3-5-2-----------------------|
G|-2-4----2-4-----2-2------------------------------------------------|
D|-------------------------------------------------------------------|
A|-------------------------------------------------------------------|
E|-------------------------------------------------------------------|

e|------------------------------------5-5h7-5------------------------|
B|-----2-----------2-3-2-5------2-3-5---------5-5h7-5----------------|
G|-2-4----4-2--2-4----------2-4--------------------------------------|
D|-------------------------------------------------------------------|
A|-------------------------------------------------------------------|
E|-------------------------------------------------------------------|

 Inaliw kita, tawa ka nga nang tawa eh
 Sinabi mo, wag kitang iwan, ayaw mong mag-isa
 O.K. lang sa akin, abutin man ng umaga
 Lahat ay gagawin para ka lang mapasaya.

 Repeat Chorus 2x

 Chord pattern A D9/A
 Ako, mahal kita
 Mahal na mahal (4x)

 Chord pattern AD 9
 Natatandaan mo, ang saya-saya natin ano
 Sa zoo. (6x)

A hold
Comments