Yano - Esem Chords & Tabs

 

Esem Chords & Tabs

Yano Chords & Tabs

Version: 1 Type: Chords 1 rating
1 star 2 stars 3 stars 4 stars 5 stars
comments

Esem Chords

   
Hey sup mga pare, eto chords para sa esem by Yano..

nde ko lang ma kuha yung riffs tsaka yung solos,eh..nde pa kasi ako super
galing..so kung meron isa sa inyo na magaling--PLZ i-tab nyo nmn o!



Esem

Intro - eto lang nakuha ko

D - A - Bm - G    
                                                           
e|-10-------------------10-----------------------------------------
B|----10------------10-----10--------------------------------------
G|-------11b-11-12-------------11b-11-12----------------10h11------
D|---------------------------------------12-12---10h11---------12--
A|-----------------------------------------------------------------
E|-----------------------------------------------------------------

 -----------------------------|
 -----------------------------|
 ----------10h11------14^-14^-|
 ---10h11---------------------|
 -----------------------------|
 -----------------------------|

 Verse D A Bm G
[ Tab from: http://www.guitartabs.cc/tabs/y/yano/esem_crd.html ]
D                A
  Patingin-tingin, di naman makabili
 Bm               G
  Patingin-tingin, di makapanood ng sine
 D                 A  
  Walang ibang pera kundi pamasahe
 Bm                G 
  Nakayanan ko lang pambili ng dalawang yosi.

 D A Bm G

D            A
 Paamoy-amoy, di naman makakain
Bm                 G
 Busog na sa tubig, gutom ay lilipas din
D                  A 
 Patuloy ang laboy, walang iisipin
Bm                  G
 Kailangang magsaya, kailangang magpahangin.

CHORUS:
A          G  
 Nakakainip ang ganitong buhay
A          G
 Nakakainis ang ganitong buhay
A          G
 Nakakainip ang ganitong buhay
A          G  
 Nakakainis ang ganitong buhay

Repeat Chorus

D            A
 Gumagabi na, ako'y uuwi na
Bm                 G 
 Tapos na ang saya, balik sa problema
D                  A
 At bukas ng umaga, uulitin ko pa ba
Bm                   G 
 Ang kahibangang ito, sa tingin ko hindi na.

Repeat Chorus

 Nakakabaliw ang ganitong buhay

 Di nakakaaliw ang ganitong buhay.

D   A     Bm     G  
     No.....no....no....no...

yun lang~! 

kung may corrections kayo email me sa Dizmacizsopimp@aol.com 
or AIM: Mack out Loud
Comments