Yankovic Weird Al - Smells Like Nirvana Chords & Tabs

 

Smells Like Nirvana Chords & Tabs

Yankovic Weird Al Chords & Tabs

Version: 3 Type: Tab 4 ratings
1 star 2 stars 3 stars 4 stars 5 stars
comments

Smells Like Nirvana Tab

   
Intro (clean/reverb)/Chorus (dist.)
E|------------------------------------------|
B|------------------------------------------|
G|-------x-x-x-x-3-3----------x-x-x-x-6-6---|
D|-3-3-3-x-x-x-x-3-3----6-6-6-x-x-x-x-6-6---|
A|-3-3-3-x-x-x-x-1-1-0--6-6-6-x-x-x-x-4-4-0-|
E|-1-1-1-x-x-x-x-----0--4-4-4-x-x-x-x-----0-|

Verse (clean, let ring)
E|---1-|
B|-1---|
G|-----|
D|-----|
A|-----|
E|-----|

Pre-Chorus (slight dist.)
E|---1----1----1----1-|
B|-1----1----1----1---|
G|--------------------|
D|--------------------|
A|--------------------|
E|--------------------|

Bridge (dist.)
E|------------------------|
B|------------------------|
G|-----------3^-----------|
D|-3-2-2-4-4----3-2-2-8-6-|
A|-3-2-2-4-4----3-2-2-8-6-|
E|-1-0-0-2-2----1-0-0-6-4-|
[ Tab from: http://www.guitartabs.cc/tabs/y/yankovic_weird_al/smells_like_nirvana_tab_ver_3.html ]
Solo (dist.)
E|-----------------------------------------|
B|-----------------------------------------|
G|----8-10---8-8^-8-6-5-6-5----------------|
D|-10------6----------------8-6-8-8^-8-6-5-|
A|-----------------------------------------|
E|-----------------------------------------|

E|-----------------------------------------|
B|-----------------------------------------|
G|----8-10---8-8^-8-6-5-6-5----------------|
D|-10------6----------------8-6-8-8^-8-6-5-|
A|-----------------------------------------|
E|-----------------------------------------|

           this part sound cool if you hammer pull off and slide in places
                           E|---------------------|
                           B|---------------------|
                           G|---------------------|   X4
                           D|-6-5-6-5-6-5-6-5-5/3-|
                           A|---------------------|
                           E|---------------------|
Comments