Xutos E Pontapes - Chuva Dissolvente Chords & Tabs

 

Chuva Dissolvente Chords & Tabs

Xutos E Pontapes Chords & Tabs

Version: 1 Type: Tab 1 rating
1 star 2 stars 3 stars 4 stars 5 stars
comments

Chuva Dissolvente Tab

   
Xutos e Pontapés - Chuva Dissolvente 

 
   D(2x)                   Am      C         G         D                
e|-2-2-2--2-0---2-0----------0-0-----------------------------
b|-3-3-3-----3-----3---1---3-----1-3--1--0---1--3--3---3--1--
g|-2-2-2------2~----2--2-2-2---------------0---------2-------
d|-0-0-0--0-0---0-0--------------------------------0---0--0--
a|---------------------0---0---3---3--3----------------------
E|---------------------------------------3---3--3------------

    Am      C         G        D      Am
e|--------0-0-----------------------------
b|--1---3-----1-3--1--0--0--0--3---3--1---
g|--2-2-2--------------0-0--0--2-2-2--2---
d|-----------------------------0---0------
a|--0---0---3---3--3------------------0---
E|--------------------3--3--3-------------



Am  x02210
C   O32010
G   320033
D   xx0232

[ Tab from: http://www.guitartabs.cc/tabs/x/xutos_e_pontapes/chuva_dissolvente_tab.html ]
 Am           C             G
Entre a chuva dissolvente
         D              Am
No meu caminho de casa
            C           G
Dou comigo na corrente
             D              Am
Desta gente que se arrasta


Metro túnel, confusão
Entre o suor despertino
Mergulho na multidão
No dia a dia sem destino


Putos que crescem sem se ver
Basta pô-los em frente à televisão
Hão-de um dia se esquecer
Rasgar retratos largar-me a mão

           
Am              C           G
Hão-de um dia se esquecer
              D         Am
Como eu quando cresci
             C             G
Será que ainda te lembras
            D          C
Do que fizeram por ti



chorus
                    G       Am 
E o que foi feito de ti,
                    D       Am
E o que foi feito de mim,
                   G         D
E o que foi feito de ti,
                              Am C G D Am
Já me lembrei já me esqueci...
 

Quando te livrares do peso
Desse amor que não entendes
Vais sentir uma outra força 
Como que uma falta imensa


E quando deres por ti
Entre a chuva dissolvente
És o pai de uma criança 
No seu caminho de casa

chorus

tabbed by Claudio Quina
claudioquina@hotmail.com
Comments