Xtc - Senses Working Overtime Chords & Tabs

 

Senses Working Overtime Chords & Tabs

Xtc Chords & Tabs

Version: 1 Type: Tab 0 ratings
1 star 2 stars 3 stars 4 stars 5 stars
comments

Senses Working Overtime Tab

1----------------------------|
2------0-------0--0--0--0----|
3---8--8--8----6--6--6--6----|  Repeat X 4
4---6-----6----8-----8-------|
5----------------------------|
6----------------------------|

Song goes..
    One two three four five!
[ Tab from: http://www.guitartabs.cc/tabs/x/xtc/senses_working_overtime_tab.html ]
1----0---0---0---0---0------------------------|
2----5---4---2---1---0------------------------|
3--------------------1------------------------|
4--------------------2------------------------|
5--------------------2------------------------|
6--------------------0------------------------|

Main part goes..
    Senses  working   o     ver   time......

1----0---0---0---0-----------------------------|
2----5---4---2---1------2-----4----5-4---------|
3----------------------2-----4----4---4--------|
4---------------------2-----4----4-----4-------|
5--------------------0-----2----0--------------|
6----------------------------------------------|
Comments