X Japan - Endless Rain Chords & Tabs

 

Endless Rain Chords & Tabs

X Japan Chords & Tabs

Version: 1 Type: Tab 0 ratings
1 star 2 stars 3 stars 4 stars 5 stars
comments

Endless Rain Tab

Pista 1
                                                                        
E||--0---------0---------|----------------------|----------------------|
B||--1---------1---------|--3---------3---------|--1---------1---------|
G||-------0---------0----|--4---------4---------|--2---------2---------|
D||----------------------|-------5---------5----|-------3---------3----|
A||--3-------------------|--3-------------------|--3-------------------|
E||----------------------|----------------------|----------------------|


                                                                       
-----------------------||----------------------|------------1---------|
--3---------3----------||--1---------1---------|--1---------1---------|
--4---------4---------*||--2---------2---------|--2-------------------|
-------5---------5----*||-------3---------3----|-------3---------3----|
--3--------------------||----------------------|----------------------|
-----------------------||--1-------------------|----------------------|


                                                                     
----------------------|------------0----1----|--1---------1---------|
--1---------1---------|--3----3--------------|--1---------1---------|
--2---------2---------|--4-------------------|-------0---------0----|
-------3---------3----|----------------------|----------------------|
----------------------|----------------------|--3-------------------|
--1-------------------|--3-------------------|----------------------|


                                                                    
--0---------0---------|--1---------1---------|--0------------------|
--1---------1---------|--1---------1---------|--1------------------|
-------0---------0----|-------0---------0----|-----------0---------|
----------------------|----------------------|---------------------|
--3-------------------|--3-------------------|--3-------------3----|
----------------------|----------------------|---------------------|


                                                                     
-----------------0----|--0----0----0----0----|----------------------|
------------1---------|----------------------|----------------------|
-------0--------------|----------------------|--0----0--------------|
--2-------------------|----------------------|-----------------5----|
----------------------|----------------------|------------3---------|
----------------------|----------------------|----------------------|


                                                                     
----------------------|----------------------|--1--------------0----|
-------3----3----3----|--3----3---------3----|------------1---------|
--4-------------------|------------1---------|-------2--------------|
----------------------|----------------------|----------------------|
----------------------|----------------------|----------------------|
----------------------|----------------------|----------------------|


                                                                     
----------------------|----------------------|----------------------|
--1----1----1----1----|--0---------0----1----|-------3---------1----|
----------------------|-------2---------2----|-------2---------0----|
----------------------|----------------------|--3---------3---------|
----------------------|----------------------|----------------------|
----------------------|-----------------1----|-----------------3----|


                                                                
-----------------|----------------------|--0----0----0----0----|
-------0---------|-----------------1----|----------------------|
-------0---------|------------0---------|----------------------|
--0---------0----|-------2--------------|----------------------|
-----------------|--3-------------------|----------------------|
-----------------|----------------------|----------------------|


                                                                     
--0-------------------|----------------------|----------------------|
----------------------|------------3----3----|--3----3----3---------|
-------0----0---------|-------4--------------|-----------------1----|
----------------------|--5-------------------|----------------------|
-----------------3----|----------------------|----------------------|
----------------------|----------------------|----------------------|

[ Tab from: http://www.guitartabs.cc/tabs/x/x_japan/endless_rain_tab.html ]
                                                                     
-------1--------------|--0-------------------|------------5----5----|
--3--------------1----|-------2----2----2----|----------------------|
------------2---------|----------------------|-------5--------------|
----------------------|----------------------|--3-------------------|
----------------------|----------------------|----------------------|
----------------------|----------------------|----------------------|


                                                                     
--5----5----3---------|----------------------|--0-------------------|
------------0---------|-------3---------0----|-------3----1---------|
----------------------|--0---------0---------|------------2---------|
-----------------0----|----------------------|----------------------|
----------------------|----------------------|-----------------3----|
------------3---------|----------------------|------------1---------|


                                                                     
-------0--------------|----------------------|-----------------0----|
------------3---------|--0----1--------------|--3---------0---------|
------------4----5----|-----------------0----|-------1--------------|
--3-------------------|------------2---------|----------------------|
----------------------|-------3--------------|----------------------|
------------3---------|----------------------|----------------------|


                                                                     
----------------------|--0-------------------|------------1---------|
--3----1--------------|-------3---------0----|--1---------1---------|
-------2--------------|-------4----5---------|-------0---------0----|
-----------------3----|----------------------|----------------------|
------------3---------|----------------------|--3-------------------|
-------1--------------|-------3--------------|----------------------|


                                                                     
--0---------0---------|--0-------------------|------------7---------|
--1---------1---------|------------1---------|----------------------|
-------0---------0----|-------0---------0----|-------0---------0----|
----------------------|----------------------|----------------------|
----------------------|--3-------------------|----------------------|
----------------------|----------------------|--7-------------------|


                                                                        
--8-------------------|------------10----8----|--7----8----------------|
------------5---------|-----------------------|------------------------|
-------5---------5----|-------0---------------|------------------10----|
----------------------|-----------------------|------------10----------|
--0-------------------|-----------------------|-------8----------------|
----------------------|--3--------------------|------------------------|


                                                                        
------------------10----|--8----7----8---------|-------10----8----7----|
------------------------|----------------------|--6----------8----8----|
-------------0----------|-----------------7----|-------------0----0----|
--10--------------------|------------0---------|-----------------------|
------------------------|----------------------|-----------------------|
--------3---------------|----------------------|-----------------------|


                                                                       
-------0---------0----|-----------------7----|-------8----------------|
-------1---------1----|-----------------8----|-------10---------------|
------------0---------|--0---------0---------|--0----------------9----|
--0-------------------|----------------------|-------------10---------|
-------3--------------|----------------------|-------0----------------|
----------------------|-------7--------------|------------------------|


                                                                          
------------------10----|--8----7----8----------|------------------------|
------------------------|-----------------------|------------------------|
-------------0----------|-----------------------|--10---------------0----|
--10--------------------|-----------------10----|--------10--------------|
------------------------|------------8----------|------------------------|
--------3---------------|-----------------------|--------------0---------|


                                                        
--10----8----7----8----|-----------------7----|-------||
-----------------------|-------6---------8----|--8----||
-----------------------|--7---------7----0----|-------||
------------------0----|----------------------|-------||
-----------------------|----------------------|-------||
-----------------------|----------------------|-------||


Comments