X Is Loaded - Raw Nerve Chords & Tabs

 

Raw Nerve Chords & Tabs

X Is Loaded Chords & Tabs

Version: 1 Type: Tab 0 ratings
1 star 2 stars 3 stars 4 stars 5 stars
comments

Raw Nerve Tab

   
X Is Loaded - Raw Nerve
Tabbed by Kevin Ryan (youdoittoyourself@hotmail.co.uk)

Normal Tuning - EADGBE


Intro
-----

Guitar 1

E [---------------------------------]
B [---------------------------------]
G [-1-1-1-1-1-1-1-5---5-5-5-5-5-5-5-]
D [-2-2-2-2-2-2-2-6---6-6-6-6-6-6-6-]
A [-2-2-2-2-2-2-2-6---6-6-6-6-6-6-6-]
E [-0-0-0-0-0-0-0-4---4-4-4-4-4-4-4-]


Guitar 2 - (tremelo pick)

E [-----------------------------------------------------]
B [-----------------------------------------------------]
G [-13---6--8--------13---6--8----16---13---6--8--17-16-]
D [-----------------------------------------------------]
A [-11---4--6--------11---4--6----14---11---4--6--15-14-]
E [-----------------------------------------------------]

E [-----------------------------------------------------]
B [-----------------------------------------------------]
G [-13---------------13---6--8----17----16--17-----16---]
D [-----------------------------------------------------]
A [-11---------------11---4--6----15----14--15-----14---]
E [-----------------------------------------------------]



Verse
-----

Guitar 1

Play A and B chords

A - x02220
B - x24442


Guitar 2 - play over above chords

E [------------------------------------19----------]
B [-----14------14------14-------14-16----16----14-]
G [------------------------------------------------]
D [-/14------14------14------14--------------14----]
A [------------------------------------------------]
E [------------------------------------------------]


Guitar 1

play E and Ab chords same as intro


Guitar 2 - play over above chords (tremelo pick)

E [---------------------------------------]
B [---------------------------------------]
G [-13---6--8--17---16---13-------17---16-]
D [---------------------------------------]
A [-11---4--6--15---14---11-------15---14-]
E [---------------------------------------]



Bridge
------

Guitar 1

Play muted C#m and A barre chords

C#m - x46654
A   - 577655


Guitar 2

E [-----------------------------------16-----------------------------------------------------------]
B [-----------------------------16b18----16b18r16---14---13----------------------------------------]
G [--------14---13-----------------------------------------------14---13--------------14---13------]
D [---13-------------11--------------------------------------13------------11-----13------------11-]
A [------------------------------------------------------------------------------------------------]
E [------------------------------------------------------------------------------------------------]

E [--------------------------------------------------------------------------------------------]
B [-14-----14-------16-------14----------------------------------------------------------------]
G [-14--------14-------14-------14-----------16-------15-------14-------13------------------16-]
D [-14-----------14-------14-------14--------------14-------14-------14-------14------13h14----]
A [-----------------------------------16--------16-------16-------16-------16------16----------]
E [--------------------------------------------------------------------------------------------]

E [----------------------------16------------------------]
B [----------------------16b18----16b18r16--16b18r16--14-]
G [------14----13----------------------------------------]
D [-13-------------11------------------------------------]
A [------------------------------------------------------]
E [------------------------------------------------------]

E [------------------------------------19----------]
B [-----14------14------14-------14-16----16----14-]
G [------------------------------------------------]
D [-/14------14------14------14--------------14----] x2
A [------------------------------------------------]
E [------------------------------------------------]


Chorus
------

Guitar 1

Play C#5 and slide up to E5


Guitar 2

i can't quite make out this part but its something along
the lines of plucking notes of a C#m and E chord 
[ Tab from: http://www.guitartabs.cc/tabs/x/x_is_loaded/raw_nerve_tab.html ]
E [---------------------------------14----------]
B [-9-----------------9/12-16-------------------]
G [---9----------9------------13----------13----]
D [-----11----11---11------------14----14----14-]
A [--------11-----------------------------------]
E [---------------------------------------------]

after the chorus play:

E [---------------------------------------]
B [---------------------------------------]
G [-13---6--8--17---16---13-------17---16-]
D [---------------------------------------]
A [-11---4--6--15---14---11-------15---14-]
E [---------------------------------------]



Solo
----

Guitar 1

Play C#5 and slide up to E5


Guitar 2

E [--------------------------------------------------------------------------------------]
B [--------------------------------------------11b12r11---11b12r11---11-11-9-11b12r11----]
G [----11b12r11--9---11---9-11-9-11b12r11------11b12r11-9-----------------------------9--]
D [-11------------------------------------11---------------------------------------------]
A [--------------------------------------------------------------------------------------]
E [--------------------------------------------------------------------------------------]

E [----16--------------------------------16----14--0-]
B [-------14----16-17----14~-------13-14----------12-]
G [-13-------13-------13--------13----------13-------]
D [--------------------------------------------------]
A [--------------------------------------------------]
E [--------------------------------------------------]

E [----16---------------------------------------14b16-]
B [-------14----16-17----14~-----12-12-12-11-12-------]
G [-13-------13-------13------------------------------]
D [---------------------------------------------------]
A [---------------------------------------------------]
E [---------------------------------------------------]


Then play below riff again

E [---------------------------------------]
B [---------------------------------------]
G [-13---6--8--17---16---13-------17---16-]
D [---------------------------------------]
A [-11---4--6--15---14---11-------15---14-]
E [---------------------------------------]


Before final chorus/outro play

E [---------7-----------------7-------------9-----11-----9-----7-----7-----5-----]
B [---5-------5---5~--------5---5-------------7------7-----7-----5-----5-----5---]
G [-8---8-6-----6-------6h8-------6-------6-----6------6-----6-----6-----6-----6-]
D [------------------------------------------------------------------------------]
A [------------------------------------------------------------------------------]
E [------------------------------------------------------------------------------]

E [--------4+-------------------4+------------]
B [-4+--5+--------12+----4+--5+--------12+----]
G [-------------------------------------------]
D [-------------------------------------------]
A [-------------------------------------------]
E [-------------------------------------------]

+ harmonics on 4th, 5th and 12th frets of E and B Strings



Chorus & Outro
--------------

Guitar 2

E [--------------------------------------------------------------------------------------]
B [--------------------------------------------11b12r11---11b12r11---11-11-9-11b12r11----]
G [----11b12r11--9---11---9-11-9-11b12r11------11b12r11-9-----------------------------9--]
D [-11------------------------------------11---------------------------------------------]
A [--------------------------------------------------------------------------------------]
E [--------------------------------------------------------------------------------------]

E [----16--------------------------------16----14--0-]
B [-------14----16-17----14~-------13-14----------12-]
G [-13-------13-------13--------13----------13-------]
D [--------------------------------------------------]
A [--------------------------------------------------]
E [--------------------------------------------------]

E [----16----------------------------------------------------------------]
B [-------14----16-17----14~----12-12-12-12-12-12---11b------------------]
G [-13-------13-------13----------------------------11b-(x11)------------]
D [------------------------------------------------------------8/11----8-]
A [----------------------------------------------------------------------]
E [----------------------------------------------------------------------]
Comments