X Ecutioners - Its Goin Down Chords & Tabs

 

Its Goin Down Chords & Tabs

X Ecutioners Chords & Tabs

Version: 6 Type: Tab 0 ratings
1 star 2 stars 3 stars 4 stars 5 stars
comments

Its Goin Down Tab

   
itle: It's going down 
Artist: X-ecutioners
Album: Built From Scratch
Tuning: Dropped D one half step down C# G# C# F# A# D# 
00:07 
-|---|- 
-|---|- 
-|---|- 
-|-0-|- Hit this chord hard and fade it in with your volume knob.
-|-0-|- 
-|-0-|- 

00:09 [INTRO] Watch them flee... 
-|-----------------------------------------------------|-
-|-----------------------------------------------------|- 
-|---------------------------------------------------5----5-|- 
-|-0--0--0-0--0-0-------------------0--0--0---0-5--0-5-|- 
-|-0--0--0-0--0-0-------------------0--0--0---0-3--0-3-|- 
-|-0--0--0-0--0-0--*2.7--*2.7-*2.7--0--0--0---0----0---|- 
PM PM *=N. Harmonic PM PM 00:14 [INTRO con't] 
Watch them flee... 
-|------------------------------------------|- 
-|------------------------------------------|- 
-|------------------------------------------|- 
-|-0--0--0-0--0-0-------------------0--0--0-|- 
-|-0--0--0-0--0-0-------------------0--0--0-|- 
-|-0--0--0-0--0-0--*2.7--*2.7-*2.7--0--0--0-|-
 PM PM 00:18 

[CHORUS] Do it like this... 
-|-----------------------------------------------------|- 
-|-----------------------------------------------------|- 
-|----------------------------------------------5----5-|- 
-|-0--0--0-0--0-0-------------------0--0--0---0-5--0-5-|- 
-|-0--0--0-0--0-0-------------------0--0--0---0-3--0-3-|- 
-|-0--0--0-0--0-0--*2.7--*2.7-*2.7--0--0--0---0----0---|- 
| PM PM PM PM | | Play 3 times. | | | 

-|(Guitar-2)-------------------------------------------|- 
-|-----------------------------------------------------|- 
-|-11-------------------------------9------------------|- 
-|-x--Play-16-times.----------------x-Play-16-times.---|- 
-|-9--------------------------------7------------------|- 
-|-----------------------------------------------------|- 

00:32 [CHORUS con't] (scratchin') 
-|-----------------------------------------------------|- 
-|-----------------------------------------------------|- 
-|-----------------------------------------------------|- 
-|-0--0--0-0--0-0-------------------0--0--0------------|- 
-|-0--0--0-0--0-0-------------------0--0--0------------|- 
-|-0--0--0-0--0-0--*2.7--*2.7-*2.7--0--0--0------------|- 
| PM PM | | Play Once. | | | 





-|(Guitar-2)-------------------------------------------|- 
-|-----------------------------------------------------|- 
-|-11-------------------------------9------------------|- 
-|-x--Play-16-times.----------------x-Play-16-times.---|- 
-|-9--------------------------------7------------------|- 
-|-----------------------------------------------------|- 

00:36 [Verse] It's goin' down... 
-|-----------------------------------------------|- 
-|-----------------------------------------------|- 
-|----------------------------------------5----5-|- 
-|-0--0--1-1--0-------------------------0-5--0-5-|- 
-|-0--0--1-1--0-------------------------0-3--0-3-|- 
-|-0--0--1-1--0-------------------------0----0---|- 
PM PM PM PLay 7 times. 
01:09 [Verse con't] To blur the edges... 
-|--------------|- 
-|--------------|- 
-|--------------|- 
-|-0--0--1-1--0-|- 
-|-0--0--1-1--0-|- 
-|-0--0--1-1--0-|- PM 

01:13 [Chorus] It's goin' down... 
-|-----------------------------------------------------|- 
-|-----------------------------------------------------|- 
-|----------------------------------------------5----5-|- 
-|-0--0--0-0--0-0-------------------0--0--0---0-5--0-5-|- 
-|-0--0--0-0--0-0-------------------0--0--0---0-3--0-3-|- 
-|-0--0--0-0--0-0--*2.7--*2.7-*2.7--0--0--0---0----0---|- 
| PM PM PM PM | | Play 4 times. | | | 
[ Tab from: http://www.guitartabs.cc/tabs/x/x_ecutioners/its_goin_down_tab_ver_6.html ]
-|(Guitar-2)-------------------------------------------|- 
-|-----------------------------------------------------|- 
-|-11-------------------------------9------------------|- 
-|-x--Play-16-times.----------------x-Play-16-times.---|- 
-|-9--------------------------------7------------------|- 
-|-----------------------------------------------------|- 
01:31 [Verse] It's goin' down... 
-|-----------------------------------------------|- 
-|-----------------------------------------------|- 
-|----------------------------------------5----5-|- 
-|-0--0--1-1--0-------------------------0-5--0-5-|- 
-|-0--0--1-1--0-------------------------0-3--0-3-|- 
-|-0--0--1-1--0-------------------------0----0---|-
 PM PM PM Play 4 times. 

01:50 [Verse con't] It's goin' down... 
-|-----------------------------------------------|- 
-|-----------------------------------------------|- 
-|----------------------------------------5----5-|- 
-|-0--0--1-1--0------------------0--0---0-5--0-5-|- 
-|-0--0--1-1--0------------------0--0---0-3--0-3-|- 
-|-0--0--1-1--0------------------0--0---0----0---|- 
PM PM PM Play Once. 

01:54 [Verse con't] Cleverly seeing through... 
-|-----------------------------------------------|- 
-|-----------------------------------------------|- 
-|----------------------------------------5----5-|- 
-|-0--0--1-1--0-------------------------0-5--0-5-|- 
-|-0--0--1-1--0-------------------------0-3--0-3-|- 
-|-0--0--1-1--0-------------------------0----0---|- 
PM PM PM Play 3 times. 

02:08 [Chorus] It's goin' down... 
-|-----------------------------------------------------|- 
-|-----------------------------------------------------|- 
-|----------------------------------------------5----5-|- 
-|-0--0--0-0--0-0-------------------0--0--0---0-5--0-5-|- 
-|-0--0--0-0--0-0-------------------0--0--0---0-3--0-3-|- 
-|-0--0--0-0--0-0--*2.7--*2.7-*2.7--0--0--0---0----0---|- 
PM PM PM PM Play Twice. 

02:17 [Chorus con't] It's goin' down... 
-|-----------------------------------------------------|- 
-|-----------------------------------------------------|- 
-|----------------------------------------------5----5-|- 
-|-0--0--0-0--0-0-------------------0--0--0---0-5--0-5-|- 
-|-0--0--0-0--0-0-------------------0--0--0---0-3--0-3-|- 
-|-0--0--0-0--0-0--*2.7--*2.7-*2.7--0--0--0---0----0---|- 
| PM PM PM PM | | Play 4 times. | | | 

-|(Guitar-2)-------------------------------------------|- 
-|-----------------------------------------------------|- 
-|-11-------------------------------9------------------|- 
-|-x--Play-16-times.-------------x-Play-16-times.---|- 
-|-9--------------------------------7------------------|- 
-|-----------------------------------------------------|- 

02:36 [Bridge] It's goin' down. 
-|--------------|- 
-|--------------|- 
-|--------------|- 
-|-0--0--1-1--0-|- 
-|-0--0--1-1--0-|- 
-|-0--0--1-1--0-|- 
PM Play Twice. 

02:45 [Bridge con't] (scratchin') 
-|-----------------------------------------------|- 
-|-----------------------------------------------|- 
-|----------------------------------------5----5-|- 
-|-0--0--1-1--0-------------------------0-5--0-5-|- 
-|-0--0--1-1--0-------------------------0-3--0-3-|- 
-|-0--0--1-1--0-------------------------0----0---|-
 PM Play Once. 





02:49 [Bridge con't] (scratchin) 
-|-----------------------------------------------------|- 
-|-----------------------------------------------------|- 
-|----------------------------------------------5----5-|- 
-|-0--0--0-0--0-0-------------------0--0--0---0-5--0-5-|- 
-|-0--0--0-0--0-0-------------------0--0--0---0-3--0-3-|- 
-|-0--0--0-0--0-0--*2.7--*2.7-*2.7--0--0--0---0----0---|- 
PM PM 

02:54 [Chorus] It's goin' down... 
-|-----------------------------------------------------|- 
-|-----------------------------------------------------|- 
-|----------------------------------------------5----5-|- 
-|-0--0--0-0--0-0-------------------0--0--0---0-5--0-5-|- 
-|-0--0--0-0--0-0-------------------0--0--0---0-3--0-3-|- 
-|-0--0--0-0--0-0--*2.7--*2.7-*2.7--0--0--0---0----0---|- 
| PM PM PM PM | | Play 4 times. | | | 

-|(Guitar-2)-------------------------------------------|- 
-|-----------------------------------------------------|- 
-|-11-------------------------------9------------------|- 
-|-x--Play-16-times.----------------x-Play-16-times.---|- 
-|-9--------------------------------7------------------|- 
-|-----------------------------------------------------|- 

03:12 [Outro] It's goin' down... 
-|-----------------------------------------------|- 
-|-----------------------------------------------|- 
-|----------------------------------------5----5-|- 
-|-0--0--1-1--0-------------------------0-5--0-5-|- 
-|-0--0--1-1--0-------------------------0-3--0-3-|- 
-|-0--0--1-1--0-------------------------0----0---|- 
PM Play 4 times.
 
03:30 [Outro con't] 
-|--------------|- 
-|--------------|- 
-|--------------|- 
-|-0--0--1-1--0-|- 
-|-0--0--1-1--0-|- 
-|-0--0--1-1--0-|- 
PM 
Comments