X Ecutioners - Its Goin Down Chords & Tabs

 

Its Goin Down Chords & Tabs

X Ecutioners Chords & Tabs

Version: 3 Type: Tab 0 ratings
1 star 2 stars 3 stars 4 stars 5 stars
comments

Its Goin Down Tab

   
------------------------------------------------------------
			ITS GOING DOWN
------------------------------------------------------------
		X-ECUTIONERS FEAT. LINKIN PARK
------------------------------------------------------------

Tabbed by Prophecy (disparage2001@hotmail.com)


		== PLEASE VISIT THESE GREAT ==
	   == LINKIN PARK AND LOSTPROPHETS SITES ==

	 [http://www.lp-intheend.com (Linkin Park)]

	[http://www.lostprophets.net (lostprophets)]



NOTES: Drop tune to D

* Harmonic



INTRO
|------------------------------------------------------
|------------------------------------------------------
|------------------------------------------------------
|-2-0-2-0--2-****-2-0-2--44-44---2-0-2-0--2-****-202-2-
|-2-0-2-0--2-****-2-0-2--44-44---2-0-2-0--2-****-202-2-
|-2-0-2-0--2-****-2-0-2--44-44---2-0-2-0--2-****-202-2-
[ Tab from: http://www.guitartabs.cc/tabs/x/x_ecutioners/its_goin_down_tab_ver_3.html ]
PART A				VARIATION A
|-----------------------------	|--------------------
|-----------------------------	|--------------------
|-----------------------------	|--------------------
|-2-0-2-0--2-****-2-0-2--44-44-	|-2-0-2-0--2-****-2-2-
|-2-0-2-0--2-****-2-0-2--44-44-	|-2-0-2-0--2-****-2-2-
|-2-0-2-0--2-****-2-0-2--44-44-	|-2-0-2-0--2-****-2-2-

BRIDGE 				VARIATION B
|---------------------		|------------
|---------------------		|------------
|---------------------		|------------
|-2-0-2-0--2-----44-44-		|-2-0-2-0--2-
|-2-0-2-0--2-----44-44-		|-2-0-2-0--2-
|-2-0-2-0--2-----44-44-		|-2-0-2-0--2-

VARIATION C
|-----------------------
|-----------------------
|-----------------------
|-2-0-2-0--2-----2-2-44-
|-2-0-2-0--2-----2-2-44-
|-2-0-2-0--2-----2-2-44-


PLAY IT LIKE THIS:

INTRO
PART A x3
VARIATION A
BRIDGE x7
VARIATION B
PART A x 4
BRIDGE x4
VARIATION C
BRIDGE x3
PART A x6
VARIATION B x2
BRIDGE x1
VARIATION A
PART A x4
BRIDGE x4
VARIATION B
Comments