X Ecutioners - Its Goin Down Chords & Tabs

 

Its Goin Down Chords & Tabs

X Ecutioners Chords & Tabs

Version: 1 Type: Tab 0 ratings
1 star 2 stars 3 stars 4 stars 5 stars
comments

Its Goin Down Tab

-----------------------------------------------------------
It's Goin Down - X-Ecutioners feat. Hahn and Shinoda from Linkin Park 
-----------------------------------------------------------
[ Tab from: http://www.guitartabs.cc/tabs/x/x_ecutioners/its_goin_down_tab.html ]
By:
Intro & Chorus
e|--------------4-44--------------------------------------|
B|--------------4-44--------------------------------------|
G|--------------------------------------------------------|
D|---2-2-22-22--------2-2-22------------------------------|
A|---2-2-22-22--------2-2-22--0h3-0h3---------------------|
E|---2-2-22-22--------2-2-22--0h3-0h3---------------------|

Verses
e|--------------------------------------------------------|
B|--------------------------------------------------------|
G|--------------------------------------------------------|
D|---2-2-22-22--------------------------------------------|
A|---2-2-22-22----------------0h3-0h3---------------------|
E|---2-2-22-22----------------0h3-0h3---------------------|
Comments