X Ecutioners - Going Down Chords & Tabs

 

Going Down Chords & Tabs

X Ecutioners Chords & Tabs

Version: 1 Type: Tab 0 ratings
1 star 2 stars 3 stars 4 stars 5 stars
comments

Going Down Tab

X-Ecutioners - Going Down

Tabbed By Luke Anderson

any problems or suggestions email me at:
maranello14@hotmail.com

Standard Tuning (EADGBe)

Intro:
[ Tab from: http://www.guitartabs.cc/tabs/x/x_ecutioners/going_down_tab.html ]
e--------------------------------------------------------|
B--------------------------------------------------------|
G--6--6--7--6---16-16-------6--6--5--4---16-16-----------|
D--6--6--7--6---16-16-------6--6--5--4---16-16-----------|
A--4--4--5--4---14-14-------4--4--7--6---14-14-----------|
E--------------------------------------------------------|


Verse:
e--------------------------------------------------------|
B--------------------------------------------------------|
G--6--6--7--4-------6-6-6-16-16--------------------------|
D--6--6--7--4-------6-6-6-16-16--------------------------|
A--4--4--5--6-------4-4-4-14-14--------------------------|
E--------------------------------------------------------|


That pretty much covers it.
Listen to the song for the timing and how many times each part is played.
Comments