Wyclef Jean - Million Voices Chords & Tabs

 

Million Voices Chords & Tabs

Wyclef Jean Chords & Tabs

Version: 1 Type: Chords 0 ratings
1 star 2 stars 3 stars 4 stars 5 stars
comments

Million Voices Chords

   
Million Voices-Jean Wyclef
----------------------------------------------------------------------------
Tabbed by:Kathryn Sbrocchi
Email:extreme_baby@hotmail.com

Tuning:Capo on 1st

          D              Bm                G                    A
e|---------2--------------2----------------3--------------------0-----------|
B|---------3--------------3----------------3--------------------2-----------|
G|---------2--------------4----------------0--------------------2-----------|
D|---------0--------------4----------------0--------------------2-----------|
A|---------0-------------------------------2--------------------------------|
E|-----------------------------------------3--------------------------------|


African Chorus throughout song:Intro times 2, strum each chord once!!
-----------------------------------
D              Bm          G
Ni dyar'izuba, Rizagaruga, Hejuru yadju,
A
Nduzaricyeza ricyeza. (times 2)

-----------------------------------
[ Tab from: http://www.guitartabs.cc/tabs/w/wyclef_jean/million_voices_crd.html ]
D            Bm
Rwanda, Rwanda,
G                A
Yeah Rwanda, Rwanda.
-----------------------------------------------
D                                       Bm
They said: 'Many are called and few are chosen,'
                       G
But I wish some wasn't chosen
                          A
for the blood spilling of Rwanda.
----------------------------------
D
They said: 'Meshach Eshach and Abednego,
Bm
Drowned in the fire but you never get burned,'
G                                       A
but I wish that I didn't get burned in Rwanda.
----------------------------------------------
D                                              Bm
They said: 'The man is judged according to his works,'
             G                  A
so tell me Africa, what's your worth?
-------------------------------------
D                              Bm
There's no money, no diamonds, no fortunes
            G                     A
on this planet that can replace Rwanda...
---------------------------------------

The Chord Pregression is much the same for the whole song...this is my first tab so any 
would be great!!
Comments