Wwf - Wwf Themes Chords & Tabs

 

Wwf Themes Chords & Tabs

Wwf Chords & Tabs

Version: 1 Type: Tab 0 ratings
1 star 2 stars 3 stars 4 stars 5 stars
comments

Wwf Themes Tab

   
#----------------------------------PLEASE NOTE--------------------------------#
#This file is the author's own work and represents their interpretation of the#
#song. You may only use this file for private study, scholarship, or research.#
#-----------------------------------------------------------------------------#
#-- File created with Instab - http://www.pconline.com/~smcarey/instab.html --#
#-----------------------------------------------------------------------------#

Title: WWF
TUNING  (E A D G B E )

---------------------------------|------------------------------|-------------
---------------------------------|------------------------------|-------------
---------------------------------|------------------------------|-------------
-1h2h1h2h1----h2------1h2h1h2h1--|------------------------------|-------------
---------------------------------|-2-2---2---3-2-2---2-2--3b-5--|-------------
---------------------------------|-0-0---0---1-0-0---0-0--1b-3--|-------------
 KANE  (main  riff)               stone  cold  steve austin                   

------------|-------------------------|--------------------|------------------
------------|-------------------------|--------------------|------------------
------------|-------------------------|---4-2-4------------|------------------
------------|-------------------------|-2-4-2-4------------|------------------
-2-2-4/5-2--|-5--56--65--56---4h5--5--|-2-2-0-2------------|------------------
-0-0-2/3-0--|-3--34--43--34---4h5--3--|-0------------------|------------------
 road dogg    APA                       "I'VE GOT IT ALL"                     

------------------------------------------------------------------------------
------------------------------------------------------------------------------
------------------------------------------------------------------------------
--2----2-----2-2-----2----------2-2-2----2-2-2-----------------/-2-2-5-4------
--2----2-----2-2-----2----------2-2-2----2-2-2---x4------------/-2-2-5-4------
--0----0-----0-0-----0----------0-0-0----0-0-0-----------------/-0-0-3-2------
 HHH  "THE GAME"                                                              

-----------------------------------------------------------------------|------
-----------------------------------------------------------------------|------
-------5-4-------------------------------------------------------------|------
---2-2-5-4----x3------------2-----5----7----------2-----7----5---------|------
---2-2-3-2------------------2-----5----7----------2-----7----5---------|------
---0-0----------------------0-----3----5----------0-----5----3---------|------
                                         ( sorry that's all for HHH )         
[ Tab from: http://www.guitartabs.cc/tabs/w/wwf/wwf_themes_tab.html ]
------------------------------------------------------------------------------
------------------------------------------------------------------------------
------------------------------------------------------------------------------
------------------------------------------------------------------------------
---------5------5-5-7-7-7-7------------5------2-2-3-3-2-2---------------------
---0-0-0----0-0------------------0-0-0----0-0---------------------------------
 DX                     (palm mute for intro,the rest is un-palm muted) (x?)  

----------------------------------------------------------------------|-------
----------------------------------------------------------------------|-------
----------------------------------------------------------------------|-------
-----------------------------------------------------------2---2------|-------
--7p5-7---2-3---------------7p5-7---3-2--------------------2---2------|-------
---------------2-2p3-0-------------------3-3p2-0-----------0---0------|-------
                                         (x?)            (break)(X?)          

-----------------------------------------|------------------------------------
-----------------------------------------|------------------------------------
-----------------------------------------|------------------------------------
-777---44---xx222-------777---44---222---|------------------------------------
-777---44---xx222-------777---44---222---|------------------------------------
-555---22---xx000-------555---22---000---|------------------------------------
 MANKIND                                                                      

-------------------------------------------------------|----------------------
-------------------------------------------------------|----------------------
-------------------------------------------------------|----------------------
-0-0-0-0-4-0-4-0-5-0-0-0-0-0-0-0-0-4-0-4-0-0-0-5-5-----|----------------------
-0-0-0-0-4-0-4-0-5-0-0-0-0-0-0-0-0-4-0-4-0-0-0-5-5-----|----------------------
-0-0-0-0-2-0-2-0-3-0-0-0-0-0-0-0-0-2-0-2-0-0-0-3-3-----|----------------------
 RAW  IS  WAR                 (TRY PALM MUTING TOO)                           

---------------------------------------------------------------------|--------
---------------------------------------------------------------------|--------
---------------------------------------------------------------------|--------
---------------------------------------------------------------------|--------
-0-0--0-8-7-7---0-0--0-8-7-6---0-0--0-8-7-7---0-0-0-0-0-0-0-0-8-7----|--------
-0-0--0-8-7-7---0-0--0-8-7-6---0-0--0-8-7-7---0-0-0-0-0-0-0-0-8-7----|--------
 LITA  ( TUNING:  D A D G B E )                                               

Comments