Wwf - Stone Cold Steve Austin Chords & Tabs

 

Stone Cold Steve Austin Chords & Tabs

Wwf Chords & Tabs

Version: 1 Type: Tab 0 ratings
1 star 2 stars 3 stars 4 stars 5 stars
comments

Stone Cold Steve Austin Tab

Guitar 1
                                                                           
E||-------------------------|--------------------|------------------------|
B||-------------------------|--------------------|------------------------|
G||*------------------------|--------------------|------------------------|
D||*------------------------|--------------------|------------------------|
A||---2--2----2--3----2--2--|----------12--------|--2--2----2--3----2--2--|
E||---0--0----0--1----0--0--|--------------------|--0--0----0--1----0--0--|


                                                                   
--------------------|------------------------|--------------------|
--------------------|------------------------|--------------------|
--------------------|------------------------|--------------------|
--------------------|------------------------|--------------------|
----------12--------|--2--2----2--3----2--2--|----------12--------|
--------------------|--0--0----0--1----0--0--|--------------------|

[ Tab from: http://www.guitartabs.cc/tabs/w/wwf/stone_cold_steve_austin_tab.html ]
                                                                             
------------------------|--------------------------|------------------------|
------------------------|--------------------------|------------------------|
------------------------|--------------------------|------------------------|
------------------------|--------------------------|------------------------|
--2--2----2--3----2--2--|--2--2--2--2--2--2--2--2--|--2--2----2--3----2--2--|
--0--0----0--1----0--0--|--0--0--0--0--0--0--0--0--|--0--0----0--1----0--0--|


                                                                           
------------------------|------------------------|------------------------|
------------------------|------------------------|------------------------|
------------------------|------------------------|------------------------|
------------------------|------------------------|------------------------|
--2--2--2--2--12--------|--2--2----2--3----2--2--|--2--2--2--2--12--------|
--0--0--0--0------------|--0--0----0--1----0--0--|--0--0--0--0------------|


                                                                           
------------------------|------------------------|------------------------|
------------------------|------------------------|------------------------|
------------------------|------------------------|------------------------|
------------------------|------------------------|------------------------|
--2--2----2--3----2--2--|--2--2--2--2--12--------|--2--2----2--3----2--2--|
--0--0----0--1----0--0--|--0--0--0--0------------|--0--0----0--1----0--0--|


                         3x
-------------------------||
-------------------------||
------------------------*||
------------------------*||
--2--2--2--2--12---------||
--0--0--0--0-------------||
Comments