Wwf - Hhh The Game V Chords & Tabs

 

Hhh The Game V Chords & Tabs

Wwf Chords & Tabs

Version: 1 Type: Tab 0 ratings
1 star 2 stars 3 stars 4 stars 5 stars
comments

Hhh The Game V Tab

   
TITLE:The Game (triples H's new entrance)
ARTIST:WWF volume 5 (motorhead)


DISTORTION THROUGH THE WHOLE SONG
TUNNING: Dropped D
(D,A,D,G,B,E)

INTRO

E-----------------------(------------------.)
B-----------------------(------------------.)
G-----------------------(------------------.)REPEAT 3 X
D---1-----1-----1-1-----(---111---111------.)
A---1-----1-----1-1-----(---111---111------.)
D---1-----1-----1-1-----(---111---111------.)
[ Tab from: http://www.guitartabs.cc/tabs/w/wwf/hhh_the_game_v_tab.html ]
RIFF 1
E-----------------------------------
B-----------------------------------
G-----------------------------------REPEAT 8X
D---1-1----4-3-----1-1----9-8-------
A---1-1----4-3-----1-1----9-8-------
D---1-1----4-3-----1-1----9-8-------

RIFF 2
E-----------------------------------
B-----------------------------------
G-----------------------------------REPEAT 8X
D--1--1----4-6----1--1-----6-4------
A--1--1----4-6----1--1-----6-4------
D--1--1----4-6----1--1-----6-4------

BRIDGE
E-----------------------------------------------
B-----------------------------------------------
G-----------------------------------------------REPEAT 6X
D---1111--7----1111--7-----1111--6----1111--6---(2X WITHOUT ANY 
A---1111--7----1111--7-----1111--6----1111--6---(OTHER INTRUMENTS)
D---1111--7----1111--7-----1111--6----1111--6---
Comments