Wwf - Hhh The Game Chords & Tabs

 

Hhh The Game Chords & Tabs

Wwf Chords & Tabs

Version: 1 Type: Tab 2 ratings
1 star 2 stars 3 stars 4 stars 5 stars
comments

Hhh The Game Tab

This file is © of Paul Tab Productions. 
This is played by two guitarists, but here is the lead guitar tab

~ = Bend string up
> = Slide up
> = Slide Down
X = Palm Mute
* = Press onto

1st GUITAR

INTRO

E:     --------------------------------------------------------------------------------------
B:     --------------------------------------------------------------------------------------
G:     --------------------------------------------------------------------------------------
D:     -----2-------------------2--------------------2-----2--------------------2----------
A:     -----2-------------------2--------------------2-----2--------------------2----------
E:     ---------------------------------------------------------------------------------------
[ Tab from: http://www.guitartabs.cc/tabs/w/wwf/hhh_the_game_tab.html ]
E:     --------------------------------------------------------------------------------------
B:     --------------------------------------------------------------------------------------
G:     -------------------------------------------------------------------------------------
D:     ----2---2---2----------2---2---2--------------2---2---2----------2---2---2-----
A:     ----2---2---2----------2---2---2--------------2---2---2----------2---2---2-----
E:     --------------------------------------------------------------------------------------

E:     ----------------------------------------------------------------------------------------------------
B:     ----------------------------------------------------------------------------------------------------
G:     ----------------------------------------------------------------------------------------------------
D:     ----2---2---2----------2---2---2--------------2---2---2----------2---2---2--------------------
A:     ----2---2---2----------2---2---2--------------2---2---2----------2---2---2--------------------
E:     -------------------------------------------------------------------------------------------8
Comments