Wwf - Easy Wwf Theme Songs Chords & Tabs

 

Easy Wwf Theme Songs Chords & Tabs

Wwf Chords & Tabs

Version: 1 Type: Tab 2 ratings
1 star 2 stars 3 stars 4 stars 5 stars
comments

Easy Wwf Theme Songs Tab

   
EASY WORLD WRESTLING FEDERATION THEME SONGS

Title: WWF Themes for Beginners
Original Themes by James A. Johnston
Tabbed by Adam Wells

Note: These are not the actual tabs for the actual songs, which are written by James Johnston. I have just made the songs into simple one- or two-string riffs. These tabs are recommended for beginning guitarists who want to play a WWF theme song.

All songs are in normal tuning and can be done on any string(s) depending on how high or low you want it to sound. Listen to the songs on TV or on the CDs to figure out how they go.

STONE COLD STEVE AUSTIN
--0-0-0-1-0-0---5---0-0-0-1-0-0---4--
[ Tab from: http://www.guitartabs.cc/tabs/w/wwf/easy_wwf_theme_songs_tab.html ]
UNDERTAKER (MINISTRY THEME)
--2------2-2-------2-3-------3-3-------3-2-------2-2-------2-0-------0-0-------0--
---0-0-0-----0-0-0-----0-0-0-----0-0-0-----0-0-0-----0-0-0-----0-0-0-----0-0-0----

ROB VAN DAM
--0-0-0-3-0-0-3-0-0-3-3-2-1--

LITA
--0-0-0-3---2-2--

TRIPLE H
--------------3-2--
--0-0-3-2-0-0------

SMACKDOWN THEME (BEAUTIFUL PEOPLE)
--0-6-0-6-0---0-6-0-6-0---0-3-0

TEST
--0-0---1-0-0--

THE ROCK
--0---0-2-0-3-0-----4-5-4-5-3--
----------------3--------------

RAW THEME (THORN IN YOUR EYE)
--0-0-0-0-5---0-0-0-2-3-2--

RAW THEME (PLAYED DURING THE SHOW)
--0-0-0-0-2-0-3-0-4-0---0-0-0-0-2-0-3-4-4--

Comments