Ws - Flower Tattoo Chords & Tabs

 

Flower Tattoo Chords & Tabs

Ws Chords & Tabs

Version: 2 Type: Bass Tab 0 ratings
1 star 2 stars 3 stars 4 stars 5 stars
comments

Flower Tattoo Bass Tab

Flower  Tattoo
The W's 
Fourth from the Last
tabbed by jared gardner     punkrawkfreak@hotmail.com

i think todd uses a pick for the intro if not the whole song
G|----------------------------------|
D|----------------------------------|
A|----6-------4-------6-------4-----|
E|--7---7-6-5---5-6-7---7-6-5---5-6-|

that's the intro and the verses
[ Tab from: http://www.guitartabs.cc/tabs/w/ws/flower_tattoo_btab_ver_2.html ]
the chorus/prechorus riff goes like this
G|---------------------------------|
D|---------------------------------|
A|-----7---------------7-----------|
E|--7-----7--5-5-7--7-----7--5-5-7-|

well, that's just about the whole song, except for the very 
last chorus, which is just a B over and over until the end,
where he does the little 5-5-7 thing like the end of the 
normal chorus . . . questions, comments - you know the drill -
e-mail me, i'll answer it, fix it,
Comments