Wounded Bullet - Anger In The Heart Chords & Tabs

 

Anger In The Heart Chords & Tabs

Wounded Bullet Chords & Tabs

Version: 1 Type: Tab 0 ratings
1 star 2 stars 3 stars 4 stars 5 stars
comments

Anger In The Heart Tab

   
Tuning: D A D G B E

Chorus

-----------------------
-----------------------
-----------------------
-9--9-90--0-5--5-52-2-2     x3
-9--9-90--0-5--5-52-2-2   
-9--9-90--0-5--5-52-2-2


-----------------------
-----------------------
-----------------------
-9--9-90--0-5--5-52-ring     
-9--9-90--0-5--5-52-ring   
-9--9-90--0-5--5-52-ring 


Verse

[ Tab from: http://www.guitartabs.cc/tabs/w/wounded_bullet/anger_in_the_heart_tab.html ]
------------------------------------------------
------------------------------------------------
------------------------------------------------
-9-9-9-9-9-9-0-0-0-0-0-0-5-5-5-5-5-5-7-7-7-7-7-7    x4
-9-9-9-9-9-9-0-0-0-0-0-0-5-5-5-5-5-5-7-7-7-7-7-7
-9-9-9-9-9-9-0-0-0-0-0-0-5-5-5-5-5-5-7-7-7-7-7-7

Bridge

--------------------------------------
--------------------------------------
-------------------------------------- 
-9-9-0-0-5-5-2ring-9-9-0-0-5-5-7-7ring
-9-9-0-0-5-5-2ring-9-9-0-0-5-5-7-7ring
-9-9-0-0-5-5-2ring-9-9-0-0-5-5-7-7ring


The intro is a drum roll and the outro is the chorus but played by
the bass. 


Chorus x2
Verse
Bridge
Chorus
Interlude
Bridge
Verse
Chorus










Comments