Word - Joyful Sounds Chords & Tabs

 

Joyful Sounds Chords & Tabs

Word Chords & Tabs

Version: 1 Type: Tab 0 ratings
1 star 2 stars 3 stars 4 stars 5 stars
comments

Joyful Sounds Tab

   
Joyful Sounds  -   by The Word

The key is E and they play pentatonic
I did this small part in like three minutes so I think the F chord part is wrong but you can make sound right if you mess with it.  If you can figure out the rest just leave a message at the request board 
I will eventually correct the mistakes and do the entire song

Legend of symbols used in this tab:

              5/7               Slide up from fret 5 to 7
              7\5               Slide down from fret 7 to 5
              /5                Slide up "from nowhere"
              5\                Slide down "to nowhere"
              5b7               Pick fret 5, then bend two frets
              [5]b7             Bend two frets before picking
              5b7r5             Pick, bend two frets, release bend
              5b7-7           Pick the bend again in that position
              5h7               Pick fret 5, hammer on fret 7
              7p5               Pick fret 7, pull of to fret 5
              (7)               The note is still ringing from a previous hit
              ``````               Left hand vibrato
              X                 Fret string loosely to mute the sound


Strum so it sounds right not always every string 

        E                      F#m                          A 
                                               
|-----0------0------|----2----2----2-/--5---|---5------5------|----5------5------|
|-----0------0------|----2----2----2-/--5---|---5------5------|----5------5------|
|-----1------1------|----2----2----2-/--6---|---6------6------|----6------6------|         Repeat throughout song
|-----2------2------|----4----2----2-/--7---|---7------7------|----7------7------|           
|-----2------2------|----4----2----2-/--7---|---7------7------|----7------7------|         x 4 for intro   
|-----0------0------|----2----2----2-/--5---|---5------5------|----5------5------|

   Solo: 
|------------------------------|---------------------------|------------------------------|
|------------------------------|---------------------------|------------------------------|
|-----------9----11b13-13------|--13r12----12r11-11--------|--9-----------9----11--11--|
|----11------------------------|---------------------------|---------11------------------|
|------------------------------|---------------------------|------------------------------|
|------------------------------|---------------------------|------------------------------|

                                                                                                  
|-----------------------------|------------------------------|----------------------------------|
|-----------------------------|------------------------------|--12b14r12`````--(12)/14-----|
|--------9----11b13-13--------|--13r12----12r11-11-----------|----------------------------------|
|--11-------------------------|------------------------------|----------------------------------|
|-----------------------------|------------------------------|----------------------------------|
|-----------------------------|------------------------------|----------------------------------|
[ Tab from: http://www.guitartabs.cc/tabs/w/word/joyful_sounds_tab.html ]
 
|---------------------------------------|----------------------------------------------------------------|
|---------------------------------------|----------------------------------------------------------------|
|-----------9----9----11b13-13-13-------|--13r12----12r11--11--9-----------------9-9`````----11--|
|--9--11--------------------------------|--------------------------------11--9--11--------------------|
|---------------------------------------|----------------------------------------------------------------|
|---------------------------------------|----------------------------------------------------------------|


|----------------------------------------------|-------------------------------|---------------------------------|
|----------------------------------------------|-------------------------------|--12b14--12`````(12)--14----|
|---------------------9----11b13-13-13---------|--13r12--12r11--11--9-----|---------------------------------|
|--9h11p9----11--------------------------------|-------------------------------|---------------------------------|
|----------------------------------------------|-------------------------------|---------------------------------|
|----------------------------------------------|-------------------------------|---------------------------------|

 
|------------------------------------|-------------------------|----------------|
|------------------------------------|--12b14--12````--14------|----------------|
|--9h11b13r11p9--------9--11---------|-------------------------|--11-----------|
|----------------------11------------|-------------------------|----------------|
|------------------------------------|-------------------------|----------------|
|------------------------------------|-------------------------|----------------|


|----------------------------|---------------------------|------------------------------------|
|----------------------------|---------------------------|------------------------------------|
|--9--11--9-------9--11------|--9-------9--11--9---------|--9--11—11/13-13-13-13b----|
|--------------11------------|-----11--------------11----|------------------------------------|
|----------------------------|---------------------------|------------------------------------|
|----------------------------|---------------------------|------------------------------------|

 
|----------------------------|--------------------------|----------------------|
|----------------------------|--------------------------|----------------------|
|--11--11p9--9````--11-------|--13--11------------------|-------9-9--9````----|
|----------------------------|-----------14--11--14-----|--11-----------------|
|----------------------------|--------------------------|----------------------|
|----------------------------|--------------------------|----------------------|


|--------------------------------------|-------------------|----------------|
|--------------------------------------|-------------------|----------------|
|--11/13-13-13--16--13--16b18----------|-------------------|---------------|
|--------------------------------------|-------------------|----------------|
|--------------------------------------|-------------------|----------------|
|--------------------------------------|-------------------|
Comments