Worbinu - Myth Chords & Tabs

 

Myth Chords & Tabs

Worbinu Chords & Tabs

Version: 1 Type: Tab 0 ratings
1 star 2 stars 3 stars 4 stars 5 stars
comments

Myth Tab

Hey again ppl. Our best song (yes, we do have one)

Intro / Main riff

E---------------------------------------------------------
B---------------------------------------------------------
G---------------------------------------------------------
D--7-7-7-7-9-9-9-9---5-5-5-5-7-7-7-7---3-3-3-3-5-5-5-5----
A--7-7-7-7-7-7-7-7---5-5-5-5-5-5-5-5---3-3-3-3-3-3-3-3----
D--7-7-7-7-7-7-7-7---5-5-5-5-5-5-5-5---3-3-3-3-3-3-3-3----

Cont.

E------------------------I
B------------------------I
G------------------------I
D--2-2-2-2-3-3-3-3-------I
A--2-2-2-2-3-3-3-3-------I
D--2-2-2-2-3-3-3-3-------I

Play this clean for intro and distorted for main riff


Verse uses same chords with the below on the 2nd time:

E--------------------------
B--------------------------
G--------------------------
D--12-12-12-10-10-9--------
A--12-12-12-10-10-9--------
D--12-12-12-10-10-9--------

Chorus

E----------------------------------------------------
B----------------------------------------------------
G----------------------------------------------------
D--7-7-7-7-10-10-10-10--10-10-10-10-12-12-12-10------
A--7-7-7-7-7--7--7--7---10-10-10-10-10-10-10-10------
D--7-7-7-7-7--7--7--7---10-10-10-10-10-10-10-10------
[ Tab from: http://www.guitartabs.cc/tabs/w/worbinu/myth_tab.html ]
E-----------------------------------------
B-----------------------------------------
G-----------------------------------------
D--5-5-5-5-7-7-7-7---3-3-3-3-2-2-3-3------
A--5-5-5-5-5-5-5-5---3-3-3-3-2-2-3-3------
E--5-5-5-5-5-5-5-5---3-3-3-3-2-2-3-3------

Bridge

E----------------------------------------------------
B----------------------------------------------------
G-7-7-7-7-7-7-7-7--9-9-9-9-9-9-9-9--10-10-9-9-7------
D-7-7-7-7-7-7-7-7--7-7-7-7-7-7-7-7--7--7--7-7-7------
A----------------------------------------------------
D----------------------------------------------------

Fuck Off Fast bit

E--------------------------------------------------------
B--------------------------------------------------------
G--------------------------------------------------------
D--7-7-9-10-9--7-7-9-10-9--5-5-9-10-9-5-5-9-10-9---------
A--7-7---------7-7---------5-5--------5-5----------------
D--7-7---------7-7---------5-5--------5-5----------------

E--------------------------------------------------------
B--------------------------------------------------------
G--------------------------------------------------------
D--3-3-9-10-9--3-3-9-10-9--2-2-9-10-9--2-2--12-10-9------
A--3-3---------3-3---------2-2---------2-2--12-10-9------
D--3-3---------3-3---------2-2---------2-2--12-10-9------


Thats it folks, just finish on main riff and ring out on A with plenty
of feedback - u can never have too much feedback
Comments