Wootage - Chilled Chords & Tabs

 

Chilled Chords & Tabs

Wootage Chords & Tabs

Version: 1 Type: Tab 0 ratings
1 star 2 stars 3 stars 4 stars 5 stars
comments

Chilled Tab

------------------------------------------------------------
			     newbies - Wootage

tuning: Drop D

~Intro = listen to song for timing on intro
~Verse & chorus = Timed in 1/16 notes ~ very quick
~Climax and bridge = strum in 1/16

INTRO ~
      ~ Played with Wah pushed forward (for the antique sound)

e|---------------------------------------------------------|
B|---------------------------------------------------------|
G|---------------------------------------------------------|
D|--------6----------0----------4~~~~~~~-------------------|
A|-----4----------0----------2-----------------------------|
D|--4----------0----------2--------------------------------|

e|---------------------------------------------------------|
B|---------------------------------------------Play these--|
G|---------------------------------------------two riffs---|
D|--------6----------0----------9~~~~~~~---------twice-----|
A|-----4----------0----------7-----------------------------|
D|--4----------0----------7--------------------------------|

Verse~
     ~Played on a clean channel

e|---------------------------------------------------------|
B|-------------------------------------------This riff is--|
G|----------------------------------------------played-----|
D|-6666666666666666-00000000-44444444---------four times---|
A|-4444444444444444-00000000-22222222----------------------|
D|-4444444444444444-00000000-22222222----------------------|

Chorus~
      ~Heavy Distortion
      ~Play 4 times for chorus

e|---------------------------------------------------------|
B|---------------------------------------------------------|
G|---------------------------------------------------------|
D|-6666666666666666-00000000-99999999----------------------|
A|-4444444444444444-00000000-77777777----------------------|
D|-4444444444444444-00000000-77777777----------------------|

Pre-bridge ( play after 2nd chorus )
[ Tab from: http://www.guitartabs.cc/tabs/w/wootage/chilled_tab.html ]
e|---------------------------------------------------------|
B|------------------------------------------Play three-----|
G|---------------------------------------------times-------|
D|-6666666666666666-00000000-99999999----------------------|
A|-4444444444444444-00000000-77777777----------------------|
D|-4444444444444444-00000000-77777777----------------------|

e|---------------------------------------------------------|
B|---------------------------------------------------------|
G|---------------------------------------------------------|
D|-6666666666666666-00000000-4444444444444444444444444444--|
A|-4444444444444444-00000000-2222222222222222222222222222--|
D|-4444444444444444-00000000-2222222222222222222222222222--|

Bridge~

e|---------------------------------------------------------|
B|---------------------------------------------------------|
G|---------------------------------------------------------|
D|-44444444-55555555-0000000000000000----------------------|
A|-44444444-55555555-0000000000000000----------------------|
D|-44444444-55555555-0000000000000000----------------------|

e|---------------------------------------------------------|
B|-----------------------------------------play these------|
G|-------------------------------------------twice---------|
D|-44444444-55555555-77777777-22222222---------------------|
A|-44444444-55555555-77777777-22222222---------------------|
D|-44444444-55555555-77777777-22222222---------------------|

Climax!!!

e|---------------------------------------------------------|
B|---------------------------------------------------------|
G|---------------------------------------Played 4 times----|
D|-4444-5555-8888-12-12-12-12------------------------------|
A|-4444-5555-8888-12-12-12-12------------------------------|
D|-4444-5555-8888-12-12-12-12------------------------------|

After playing the climax...play the bridge 2 more times.
Then play the climax twice also (a total of 8 times).
Song ends there!

I know this is 100 percent correct because it is my song!!!

============================================================
Comments