Wonders - That Thing You Do Chords & Tabs

 

That Thing You Do Chords & Tabs

Wonders Chords & Tabs

Version: 5 Type: Tab 0 ratings
1 star 2 stars 3 stars 4 stars 5 stars
comments

That Thing You Do Tab

-------------------------------------------------------------------------------
			That thing you do-wonders
-------------------------------------------------------------------------------
Tabbed by:sheilah farhanah
Email:sheilah_farhanah@hotmail.com

Solo for that thing you do:
[ Tab from: http://www.guitartabs.cc/tabs/w/wonders/that_thing_you_do_tab_ver_5.html ]
e|-3-3--3--3--6--5--3--0-----3--3--3--6--5--3--0--3--0--3--6--5--3--5------|
B|------------------------3------------------------------------------------|
G|-------------------------------------------------------------------------|
D|-------------------------------------------------------------------------|
A|-------------------------------------------------------------------------|
E|-------------------------------------------------------------------------|

e|--3--5--6--5--3--5--3--3--5--6--5--3--0--3-----3-------------------------|
B|--------------------------------------------4-----3----------------------|
G|-------------------------------------------------------------------------|
D|-------------------------------------------------------------------------|
A|-------------------------------------------------------------------------|
E|-------------------------------------------------------------------------|


===============================================================================
Comments